  0
SECTION
  2
HEADER
  9
$ACADVER
  1
AC1032
  9
$ACADMAINTVER
 90
      155
  9
$DWGCODEPAGE
  3
ANSI_932
  9
$LASTSAVEDBY
  1
olympia
  9
$REQUIREDVERSIONS
160
                 0
  9
$INSBASE
 10
0.0
 20
0.0
 30
0.0
  9
$EXTMIN
 10
15.05404876560741
 20
-2.292857692191027
 30
0.0
  9
$EXTMAX
 10
173.2462213479518
 20
115.1456144056082
 30
0.0
  9
$LIMMIN
 10
0.0
 20
0.0
  9
$LIMMAX
 10
12.0
 20
9.0
  9
$ORTHOMODE
 70
     0
  9
$REGENMODE
 70
     1
  9
$FILLMODE
 70
     1
  9
$QTEXTMODE
 70
     0
  9
$MIRRTEXT
 70
     1
  9
$LTSCALE
 40
1.0
  9
$ATTMODE
 70
     1
  9
$TEXTSIZE
 40
0.2
  9
$TRACEWID
 40
0.05
  9
$TEXTSTYLE
  7
Standard
  9
$CLAYER
  8
0
  9
$CELTYPE
  6
ByLayer
  9
$CECOLOR
 62
   256
  9
$CELTSCALE
 40
1.0
  9
$DISPSILH
 70
     0
  9
$DIMSCALE
 40
1.0
  9
$DIMASZ
 40
0.18
  9
$DIMEXO
 40
0.0625
  9
$DIMDLI
 40
0.38
  9
$DIMRND
 40
0.0
  9
$DIMDLE
 40
0.0
  9
$DIMEXE
 40
0.18
  9
$DIMTP
 40
0.0
  9
$DIMTM
 40
0.0
  9
$DIMTXT
 40
0.18
  9
$DIMCEN
 40
0.09
  9
$DIMTSZ
 40
0.0
  9
$DIMTOL
 70
     0
  9
$DIMLIM
 70
     0
  9
$DIMTIH
 70
     1
  9
$DIMTOH
 70
     1
  9
$DIMSE1
 70
     0
  9
$DIMSE2
 70
     0
  9
$DIMTAD
 70
     0
  9
$DIMZIN
 70
     0
  9
$DIMTOFFSET
 70
     1
  9
$DIMBLK
  1

  9
$DIMASO
 70
     1
  9
$DIMSHO
 70
     1
  9
$DIMPOST
  1

  9
$DIMAPOST
  1

  9
$DIMALT
 70
     0
  9
$DIMALTD
 70
     2
  9
$DIMALTF
 40
25.4
  9
$DIMLFAC
 40
1.0
  9
$DIMTOFL
 70
     0
  9
$DIMTVP
 40
0.0
  9
$DIMTIX
 70
     0
  9
$DIMSOXD
 70
     0
  9
$DIMSAH
 70
     0
  9
$DIMBLK1
  1

  9
$DIMBLK2
  1

  9
$DIMSTYLE
  2
Standard
  9
$DIMCLRD
 70
     0
  9
$DIMCLRE
 70
     0
  9
$DIMCLRT
 70
     0
  9
$DIMTFAC
 40
1.0
  9
$DIMGAP
 40
0.09
  9
$DIMJUST
 70
     0
  9
$DIMSD1
 70
     0
  9
$DIMSD2
 70
     0
  9
$DIMTOLJ
 70
     1
  9
$DIMTZIN
 70
     0
  9
$DIMALTZ
 70
     0
  9
$DIMALTTZ
 70
     0
  9
$DIMUPT
 70
     0
  9
$DIMDEC
 70
     4
  9
$DIMTDEC
 70
     4
  9
$DIMALTU
 70
     2
  9
$DIMALTTD
 70
     2
  9
$DIMTXSTY
  7
Standard
  9
$DIMAUNIT
 70
     0
  9
$DIMADEC
 70
     0
  9
$DIMALTRND
 40
0.0
  9
$DIMAZIN
 70
     0
  9
$DIMDSEP
 70
    46
  9
$DIMATFIT
 70
     3
  9
$DIMFRAC
 70
     0
  9
$DIMLDRBLK
  1

  9
$DIMLUNIT
 70
     2
  9
$DIMLWD
 70
    -2
  9
$DIMLWE
 70
    -2
  9
$DIMTMOVE
 70
     0
  9
$DIMFXL
 40
1.0
  9
$DIMFXLON
 70
     0
  9
$DIMJOGANG
 40
0.7853981633974483
  9
$DIMTFILL
 70
     0
  9
$DIMTFILLCLR
 70
     0
  9
$DIMARCSYM
 70
     0
  9
$DIMLTYPE
  6

  9
$DIMLTEX1
  6

  9
$DIMLTEX2
  6

  9
$DIMTXTDIRECTION
 70
     0
  9
$LUNITS
 70
     2
  9
$LUPREC
 70
     4
  9
$SKETCHINC
 40
0.1
  9
$FILLETRAD
 40
0.5
  9
$AUNITS
 70
     0
  9
$AUPREC
 70
     0
  9
$MENU
  1
.
  9
$ELEVATION
 40
0.0
  9
$PELEVATION
 40
0.0
  9
$THICKNESS
 40
0.0
  9
$LIMCHECK
 70
     0
  9
$CHAMFERA
 40
0.5
  9
$CHAMFERB
 40
0.5
  9
$CHAMFERC
 40
1.0
  9
$CHAMFERD
 40
0.0
  9
$SKPOLY
 70
     0
  9
$TDCREATE
 40
2459097.375891169
  9
$TDUCREATE
 40
2459097.000891169
  9
$TDUPDATE
 40
2460399.838763276
  9
$TDUUPDATE
 40
2460399.463763276
  9
$TDINDWG
 40
0.0841699884
  9
$TDUSRTIMER
 40
0.084169838
  9
$USRTIMER
 70
     1
  9
$ANGBASE
 50
0.0
  9
$ANGDIR
 70
     0
  9
$PDMODE
 70
     0
  9
$PDSIZE
 40
0.0
  9
$PLINEWID
 40
0.0
  9
$SPLFRAME
 70
     0
  9
$SPLINETYPE
 70
     6
  9
$SPLINESEGS
 70
     8
  9
$HANDSEED
  5
2739
  9
$SURFTAB1
 70
     6
  9
$SURFTAB2
 70
     6
  9
$SURFTYPE
 70
     6
  9
$SURFU
 70
     6
  9
$SURFV
 70
     6
  9
$UCSBASE
  2

  9
$UCSNAME
  2

  9
$UCSORG
 10
0.0
 20
0.0
 30
0.0
  9
$UCSXDIR
 10
1.0
 20
0.0
 30
0.0
  9
$UCSYDIR
 10
0.0
 20
1.0
 30
0.0
  9
$UCSORTHOREF
  2

  9
$UCSORTHOVIEW
 70
     0
  9
$UCSORGTOP
 10
0.0
 20
0.0
 30
0.0
  9
$UCSORGBOTTOM
 10
0.0
 20
0.0
 30
0.0
  9
$UCSORGLEFT
 10
0.0
 20
0.0
 30
0.0
  9
$UCSORGRIGHT
 10
0.0
 20
0.0
 30
0.0
  9
$UCSORGFRONT
 10
0.0
 20
0.0
 30
0.0
  9
$UCSORGBACK
 10
0.0
 20
0.0
 30
0.0
  9
$PUCSBASE
  2

  9
$PUCSNAME
  2

  9
$PUCSORG
 10
0.0
 20
0.0
 30
0.0
  9
$PUCSXDIR
 10
1.0
 20
0.0
 30
0.0
  9
$PUCSYDIR
 10
0.0
 20
1.0
 30
0.0
  9
$PUCSORTHOREF
  2

  9
$PUCSORTHOVIEW
 70
     0
  9
$PUCSORGTOP
 10
0.0
 20
0.0
 30
0.0
  9
$PUCSORGBOTTOM
 10
0.0
 20
0.0
 30
0.0
  9
$PUCSORGLEFT
 10
0.0
 20
0.0
 30
0.0
  9
$PUCSORGRIGHT
 10
0.0
 20
0.0
 30
0.0
  9
$PUCSORGFRONT
 10
0.0
 20
0.0
 30
0.0
  9
$PUCSORGBACK
 10
0.0
 20
0.0
 30
0.0
  9
$USERI1
 70
     0
  9
$USERI2
 70
     0
  9
$USERI3
 70
     0
  9
$USERI4
 70
     0
  9
$USERI5
 70
     0
  9
$USERR1
 40
0.0
  9
$USERR2
 40
0.0
  9
$USERR3
 40
0.0
  9
$USERR4
 40
0.0
  9
$USERR5
 40
0.0
  9
$WORLDVIEW
 70
     1
  9
$SHADEDGE
 70
     3
  9
$SHADEDIF
 70
    70
  9
$TILEMODE
 70
     1
  9
$MAXACTVP
 70
    64
  9
$PINSBASE
 10
0.0
 20
0.0
 30
0.0
  9
$PLIMCHECK
 70
     0
  9
$PEXTMIN
 10
1.000000000000000E+20
 20
1.000000000000000E+20
 30
1.000000000000000E+20
  9
$PEXTMAX
 10
-1.000000000000000E+20
 20
-1.000000000000000E+20
 30
-1.000000000000000E+20
  9
$PLIMMIN
 10
0.0
 20
0.0
  9
$PLIMMAX
 10
12.0
 20
9.0
  9
$UNITMODE
 70
     0
  9
$VISRETAIN
 70
     1
  9
$PLINEGEN
 70
     0
  9
$PSLTSCALE
 70
     1
  9
$TREEDEPTH
 70
  3020
  9
$CMLSTYLE
  2
Standard
  9
$CMLJUST
 70
     0
  9
$CMLSCALE
 40
1.0
  9
$PROXYGRAPHICS
 70
     1
  9
$MEASUREMENT
 70
     0
  9
$CELWEIGHT
370
    -1
  9
$ENDCAPS
280
     0
  9
$JOINSTYLE
280
     0
  9
$LWDISPLAY
290
     1
  9
$INSUNITS
 70
     1
  9
$HYPERLINKBASE
  1

  9
$STYLESHEET
  1

  9
$XEDIT
290
     1
  9
$CEPSNTYPE
380
     0
  9
$PSTYLEMODE
290
     1
  9
$FINGERPRINTGUID
  2
{B7A8AC39-4BDE-4DE2-BF8A-FF6DF516E268}
  9
$VERSIONGUID
  2
{FAEB1C32-E019-11D5-929B-00C0DF256EC4}
  9
$EXTNAMES
290
     1
  9
$PSVPSCALE
 40
0.0
  9
$OLESTARTUP
290
     0
  9
$SORTENTS
280
   127
  9
$INDEXCTL
280
     0
  9
$HIDETEXT
280
     1
  9
$XCLIPFRAME
280
     2
  9
$HALOGAP
280
     0
  9
$OBSCOLOR
 70
   257
  9
$OBSLTYPE
280
     0
  9
$INTERSECTIONDISPLAY
280
     0
  9
$INTERSECTIONCOLOR
 70
   257
  9
$DIMASSOC
280
     2
  9
$PROJECTNAME
  1

  9
$CAMERADISPLAY
290
     0
  9
$LENSLENGTH
 40
50.0
  9
$CAMERAHEIGHT
 40
0.0
  9
$STEPSPERSEC
 40
2.0
  9
$STEPSIZE
 40
6.0
  9
$3DDWFPREC
 40
2.0
  9
$PSOLWIDTH
 40
0.25
  9
$PSOLHEIGHT
 40
4.0
  9
$LOFTANG1
 40
1.570796326794897
  9
$LOFTANG2
 40
1.570796326794897
  9
$LOFTMAG1
 40
0.0
  9
$LOFTMAG2
 40
0.0
  9
$LOFTPARAM
 70
     7
  9
$LOFTNORMALS
280
     1
  9
$LATITUDE
 40
37.795
  9
$LONGITUDE
 40
-122.394
  9
$NORTHDIRECTION
 40
0.0
  9
$TIMEZONE
 70
 -8000
  9
$LIGHTGLYPHDISPLAY
280
     1
  9
$TILEMODELIGHTSYNCH
280
     1
  9
$CMATERIAL
347
1DC0
  9
$SOLIDHIST
280
     1
  9
$SHOWHIST
280
     1
  9
$DWFFRAME
280
     2
  9
$DGNFRAME
280
     0
  9
$REALWORLDSCALE
290
     1
  9
$INTERFERECOLOR
 62
   256
  9
$INTERFEREOBJVS
345
33
  9
$INTERFEREVPVS
346
1DC3
  9
$CSHADOW
280
     0
  9
$SHADOWPLANELOCATION
 40
0.0
  0
ENDSEC
  0
SECTION
  2
CLASSES
  0
CLASS
  1
ACDBDICTIONARYWDFLT
  2
AcDbDictionaryWithDefault
  3
ObjectDBX Classes
 90
        0
 91
        1
280
     0
281
     0
  0
CLASS
  1
VISUALSTYLE
  2
AcDbVisualStyle
  3
ObjectDBX Classes
 90
     4095
 91
        1
280
     0
281
     0
  0
CLASS
  1
ACDBPLACEHOLDER
  2
AcDbPlaceHolder
  3
ObjectDBX Classes
 90
        0
 91
        1
280
     0
281
     0
  0
CLASS
  1
LAYOUT
  2
AcDbLayout
  3
ObjectDBX Classes
 90
        0
 91
        1
280
     0
281
     0
  0
CLASS
  1
SCALE
  2
AcDbScale
  3
ObjectDBX Classes
 90
     1153
 91
        1
280
     0
281
     0
  0
CLASS
  1
MATERIAL
  2
AcDbMaterial
  3
ObjectDBX Classes
 90
     1153
 91
        1
280
     0
281
     0
  0
CLASS
  1
TABLESTYLE
  2
AcDbTableStyle
  3
ObjectDBX Classes
 90
     4095
 91
        1
280
     0
281
     0
  0
CLASS
  1
MLEADERSTYLE
  2
AcDbMLeaderStyle
  3
ACDB_MLEADERSTYLE_CLASS
 90
     4095
 91
        1
280
     0
281
     0
  0
CLASS
  1
DICTIONARYVAR
  2
AcDbDictionaryVar
  3
ObjectDBX Classes
 90
        0
 91
        1
280
     0
281
     0
  0
CLASS
  1
SORTENTSTABLE
  2
AcDbSortentsTable
  3
ObjectDBX Classes
 90
        0
 91
        1
280
     0
281
     0
  0
CLASS
  1
SUN
  2
AcDbSun
  3
SCENEOE
 90
     1153
 91
        1
280
     0
281
     0
  0
CLASS
  1
CELLSTYLEMAP
  2
AcDbCellStyleMap
  3
ObjectDBX Classes
 90
     1152
 91
        1
280
     0
281
     0
  0
ENDSEC
  0
SECTION
  2
TABLES
  0
TABLE
  2
VPORT
  5
8
330
0
100
AcDbSymbolTable
 70
     1
  0
VPORT
  5
29
330
8
100
AcDbSymbolTableRecord
100
AcDbViewportTableRecord
  2
*Active
 70
     0
 10
0.0
 20
0.0
 11
1.0
 21
1.0
 12
-288.6815268622058
 22
-88.56023500087562
 13
0.0
 23
0.0
 14
0.5
 24
0.5
 15
0.5
 25
0.5
 16
0.0
 26
0.0
 36
1.0
 17
420.0000310907466
 27
148.5000657452101
 37
0.0
 40
136.3136083442722
 41
2.575675675675676
 42
50.0
 43
0.0
 44
0.0
 50
0.0
 51
0.0
 71
     0
 72
   100
 73
     1
 74
     3
 75
     0
 76
     0
 77
     0
 78
     0
281
     0
 65
     1
110
0.0
120
0.0
130
0.0
111
1.0
121
0.0
131
0.0
112
0.0
122
1.0
132
0.0
 79
     0
146
0.0
348
2F
 60
     3
 61
     5
292
     1
282
     1
141
0.0
142
0.0
 63
   250
361
2519
  0
ENDTAB
  0
TABLE
  2
LTYPE
  5
5
330
0
100
AcDbSymbolTable
 70
     1
  0
LTYPE
  5
14
330
5
100
AcDbSymbolTableRecord
100
AcDbLinetypeTableRecord
  2
ByBlock
 70
     0
  3

 72
    65
 73
     0
 40
0.0
  0
LTYPE
  5
15
330
5
100
AcDbSymbolTableRecord
100
AcDbLinetypeTableRecord
  2
ByLayer
 70
     0
  3

 72
    65
 73
     0
 40
0.0
  0
LTYPE
  5
16
330
5
100
AcDbSymbolTableRecord
100
AcDbLinetypeTableRecord
  2
Continuous
 70
     0
  3
Solid line
 72
    65
 73
     0
 40
0.0
  0
ENDTAB
  0
TABLE
  2
LAYER
  5
2
102
{ACAD_XDICTIONARY
360
2636
102
}
330
0
100
AcDbSymbolTable
 70
     5
  0
LAYER
  5
10
330
2
100
AcDbSymbolTableRecord
100
AcDbLayerTableRecord
  2
0
 70
     0
 62
     7
  6
Continuous
370
    -3
390
F
347
1DC2
348
0
  0
LAYER
  5
3B
330
2
100
AcDbSymbolTableRecord
100
AcDbLayerTableRecord
  2
レイヤー 1
 70
     0
 62
     7
  6
Continuous
370
    -3
390
F
347
1DC2
348
0
  0
LAYER
  5
1FCE
330
2
100
AcDbSymbolTableRecord
100
AcDbLayerTableRecord
  2
寸法線
 70
     0
 62
     7
  6
Continuous
370
    20
390
F
347
1DC2
348
0
1001
AcadStringInfo
1000
MIFCodePage
1070
     1
  0
LAYER
  5
1FD4
102
{ACAD_XDICTIONARY
360
1FD5
102
}
330
2
100
AcDbSymbolTableRecord
100
AcDbLayerTableRecord
  2
SIZE
 70
     0
 62
     9
  6
Continuous
370
    20
390
F
347
1DC2
348
0
  0
LAYER
  5
251B
330
2
100
AcDbSymbolTableRecord
100
AcDbLayerTableRecord
  2
B4
 70
     0
 62
     3
  6
Continuous
370
    -3
390
F
347
1DC2
348
0
  0
ENDTAB
  0
TABLE
  2
STYLE
  5
3
330
0
100
AcDbSymbolTable
 70
     2
  0
STYLE
  5
11
330
3
100
AcDbSymbolTableRecord
100
AcDbTextStyleTableRecord
  2
Standard
 70
     0
 40
0.0
 41
1.0
 50
0.0
 71
     0
 42
0.2
  3
txt
  4

  0
STYLE
  5
1DDF
330
3
100
AcDbSymbolTableRecord
100
AcDbTextStyleTableRecord
  2
KANJI
 70
     0
 40
0.0
 41
1.0
 50
0.0
 71
     0
 42
4.0
  3
TXT
  4
BIGFONT
  0
ENDTAB
  0
TABLE
  2
VIEW
  5
6
330
0
100
AcDbSymbolTable
 70
     0
  0
ENDTAB
  0
TABLE
  2
UCS
  5
7
330
0
100
AcDbSymbolTable
 70
     0
  0
ENDTAB
  0
TABLE
  2
APPID
  5
9
330
0
100
AcDbSymbolTable
 70
    11
  0
APPID
  5
12
330
9
100
AcDbSymbolTableRecord
100
AcDbRegAppTableRecord
  2
ACAD
 70
     0
  0
APPID
  5
1DD0
330
9
100
AcDbSymbolTableRecord
100
AcDbRegAppTableRecord
  2
ACAD_MLEADERVER
 70
     0
  0
APPID
  5
1E05
330
9
100
AcDbSymbolTableRecord
100
AcDbRegAppTableRecord
  2
AcadStringInfo
 70
     0
  0
APPID
  5
1E06
330
9
100
AcDbSymbolTableRecord
100
AcDbRegAppTableRecord
  2
ACAD_NAV_VCDISPLAY
 70
     0
  0
APPID
  5
1E07
330
9
100
AcDbSymbolTableRecord
100
AcDbRegAppTableRecord
  2
ACAD_PSEXT
 70
     0
  0
APPID
  5
1FDA
330
9
100
AcDbSymbolTableRecord
100
AcDbRegAppTableRecord
  2
PLOTTRANSPARENCY
 70
     0
  0
APPID
  5
206C
330
9
100
AcDbSymbolTableRecord
100
AcDbRegAppTableRecord
  2
AcAecLayerStandard
 70
     0
  0
APPID
  5
206D
330
9
100
AcDbSymbolTableRecord
100
AcDbRegAppTableRecord
  2
ACCMTRANSPARENCY
 70
     0
  0
APPID
  5
2119
330
9
100
AcDbSymbolTableRecord
100
AcDbRegAppTableRecord
  2
ACAD_SPLINE_DATA
 70
     0
  0
APPID
  5
211A
330
9
100
AcDbSymbolTableRecord
100
AcDbRegAppTableRecord
  2
ACAD_SPLINE_DATA2
 70
     0
  0
APPID
  5
2205
330
9
100
AcDbSymbolTableRecord
100
AcDbRegAppTableRecord
  2
AcadAnnotative
 70
     0
  0
ENDTAB
  0
TABLE
  2
DIMSTYLE
  5
A
330
0
100
AcDbSymbolTable
 70
     3
100
AcDbDimStyleTable
  0
DIMSTYLE
105
27
330
A
100
AcDbSymbolTableRecord
100
AcDbDimStyleTableRecord
  2
Standard
 70
     0
178
     0
340
11
  0
DIMSTYLE
105
1E04
330
A
100
AcDbSymbolTableRecord
100
AcDbDimStyleTableRecord
  2
S １：１
 70
     0
 41
3.0
 42
0.5
 43
8.0
 44
1.0
 73
     0
 74
     0
 77
     3
 78
     8
 79
     2
140
3.5
141
5.0
143
0.03937007874016
147
1.0
171
     3
172
     1
178
     0
179
     1
271
     1
272
     1
274
     3
283
     0
284
     8
340
11
1001
AcadStringInfo
1000
MIFCodePage
1070
     1
  0
DIMSTYLE
105
1FD7
330
A
100
AcDbSymbolTableRecord
100
AcDbDimStyleTableRecord
  2
ISO-25
 70
     0
 41
2.5
 42
0.625
 43
3.75
 44
1.25
 73
     0
 74
     0
 77
     1
 78
     8
140
2.5
141
2.5
143
0.03937007874016
147
0.625
171
     3
172
     1
178
     0
271
     2
272
     2
274
     3
283
     0
284
     8
340
11
  0
ENDTAB
  0
TABLE
  2
BLOCK_RECORD
  5
1
330
0
100
AcDbSymbolTable
 70
     1
  0
BLOCK_RECORD
  5
1F
330
1
100
AcDbSymbolTableRecord
100
AcDbBlockTableRecord
  2
*Model_Space
340
22
 70
     0
280
     1
281
     0
  0
BLOCK_RECORD
  5
1B
330
1
100
AcDbSymbolTableRecord
100
AcDbBlockTableRecord
  2
*Paper_Space
340
1E
 70
     0
280
     1
281
     0
  0
BLOCK_RECORD
  5
23
330
1
100
AcDbSymbolTableRecord
100
AcDbBlockTableRecord
  2
*Paper_Space0
340
26
 70
     0
280
     1
281
     0
  0
ENDTAB
  0
ENDSEC
  0
SECTION
  2
BLOCKS
  0
BLOCK
  5
20
330
1F
100
AcDbEntity
  8
0
100
AcDbBlockBegin
  2
*Model_Space
 70
     0
 10
0.0
 20
0.0
 30
0.0
  3
*Model_Space
  1

  0
ENDBLK
  5
21
330
1F
100
AcDbEntity
  8
0
100
AcDbBlockEnd
  0
BLOCK
  5
1C
330
1B
100
AcDbEntity
 67
     1
  8
0
100
AcDbBlockBegin
  2
*Paper_Space
 70
     0
 10
0.0
 20
0.0
 30
0.0
  3
*Paper_Space
  1

  0
ENDBLK
  5
1D
330
1B
100
AcDbEntity
 67
     1
  8
0
100
AcDbBlockEnd
  0
BLOCK
  5
24
330
23
100
AcDbEntity
  8
0
100
AcDbBlockBegin
  2
*Paper_Space0
 70
     0
 10
0.0
 20
0.0
 30
0.0
  3
*Paper_Space0
  1

  0
ENDBLK
  5
25
330
23
100
AcDbEntity
  8
0
100
AcDbBlockEnd
  0
ENDSEC
  0
SECTION
  2
ENTITIES
  0
MTEXT
  5
2518
330
1F
100
AcDbEntity
  8
0
100
AcDbMText
 10
76.81323165723019
 20
81.79073297037921
 30
0.0
 40
4.0
 41
169.8946080541571
 46
60.57866405312139
 71
     1
 72
     5
  1
{\fHGMaruGothicMPRO|b0|i0|c128|p50;●MPN052PG\P●器具サイズ：幅φ151×高さ158ｍｍ\P●全長：1231ｍｍ\P●質量：0.5ｋｇ\P●コード調整具付属\P●ランプ別売（E26）\P●適合ランプ\P　60W相当LED電球　8Wまで\P　60W相当電球型蛍光灯　12Wまで}
  7
KANJI
 73
     1
 44
1.0
1001
AcadAnnotative
1000
AnnotativeData
1002
{
1070
     1
1070
     0
1002
}
  0
LINE
  5
263B
330
1F
100
AcDbEntity
  8
0
100
AcDbLine
 10
30.29505617127973
 20
96.48727991700463
 30
0.0
 11
30.29505617082862
 21
44.74060734405413
 31
0.0
  0
LINE
  5
263C
330
1F
100
AcDbEntity
  8
0
100
AcDbLine
 10
31.42622417127961
 20
96.48727991700463
 30
0.0
 11
31.42622417107043
 21
44.74060765947598
 31
0.0
  0
ELLIPSE
  5
265F
330
1F
100
AcDbEntity
  8
0
100
AcDbEllipse
 10
30.86064017127967
 20
113.0609179170045
 30
0.0
 11
-8.157398051345371
 21
0.0
 31
0.0
210
0.0
220
0.0
230
1.0
 40
0.255559
 41
3.117836582357699
 42
6.306941378411681
  0
ELLIPSE
  5
2660
330
1F
100
AcDbEntity
  8
0
100
AcDbEllipse
 10
30.86064017127967
 20
98.76478791700475
 30
0.0
 11
-5.438265367563582
 21
0.0
 31
0.0
210
0.0
220
0.0
230
1.0
 40
0.255559
 41
2.975355480018092
 42
6.449422480751287
  0
LINE
  5
2661
330
1F
100
AcDbEntity
  8
0
100
AcDbLine
 10
25.42237417128047
 20
98.76478791700475
 30
0.0
 11
22.70554417128108
 21
113.0113999170047
 31
0.0
  0
LINE
  5
2662
330
1F
100
AcDbEntity
  8
0
100
AcDbLine
 10
36.29890617128069
 20
98.76478791700475
 30
0.0
 11
39.01573617128008
 21
113.0113999170047
 31
0.0
  0
LINE
  5
2663
330
1F
100
AcDbEntity
  8
0
100
AcDbLine
 10
25.49734417128013
 20
98.53481391700444
 30
0.0
 11
26.08542017128013
 21
98.01117191700433
 31
0.0
  0
LINE
  5
2664
330
1F
100
AcDbEntity
  8
0
100
AcDbLine
 10
36.22393617128103
 20
98.53481391700444
 30
0.0
 11
35.63586017128102
 21
98.01117191700433
 31
0.0
  0
ELLIPSE
  5
2665
330
1F
100
AcDbEntity
  8
0
100
AcDbEllipse
 10
30.86064017127967
 20
97.94606591700432
 30
0.0
 11
-0.9544155720074086
 21
0.0
 31
0.0
210
0.0
220
0.0
230
1.0
 40
0.255559
 41
3.141592653589793
 42
6.283185307179586
  0
ELLIPSE
  5
2666
330
1F
100
AcDbEntity
  8
0
100
AcDbEllipse
 10
30.86064017127967
 20
96.8232479170045
 30
0.0
 11
-0.9544155720074086
 21
0.0
 31
0.0
210
0.0
220
0.0
230
1.0
 40
0.255559
 41
3.141592653589793
 42
6.283185307179586
  0
LINE
  5
2667
330
1F
100
AcDbEntity
  8
0
100
AcDbLine
 10
29.906224171281
 20
97.94606591700432
 30
0.0
 11
29.906224171281
 21
96.8232479170045
 31
0.0
  0
LINE
  5
2668
330
1F
100
AcDbEntity
  8
0
100
AcDbLine
 10
31.81505617128016
 20
97.94606591700432
 30
0.0
 11
31.81505617128016
 21
96.8232479170045
 31
0.0
  0
LINE
  5
2669
330
1F
100
AcDbEntity
  8
0
370
    20
100
AcDbLine
 10
30.86571417128027
 20
97.06715391700465
 30
0.0
 11
30.86571417128027
 21
98.18997191700447
 31
0.0
  0
LINE
  5
266A
330
1F
100
AcDbEntity
  8
0
370
    20
100
AcDbLine
 10
30.64840017128074
 20
97.0610499170046
 30
0.0
 11
30.64840017128074
 21
98.18386791700442
 31
0.0
  0
LINE
  5
266B
330
1F
100
AcDbEntity
  8
0
370
    20
100
AcDbLine
 10
30.44541817128004
 20
97.04286591700458
 30
0.0
 11
30.44541817128004
 21
98.16568191700463
 31
0.0
  0
LINE
  5
266C
330
1F
100
AcDbEntity
  8
0
370
    20
100
AcDbLine
 10
30.26072417128046
 20
97.01294991700462
 30
0.0
 11
30.26072417128046
 21
98.13576791700444
 31
0.0
  0
LINE
  5
266D
330
1F
100
AcDbEntity
  8
0
370
    20
100
AcDbLine
 10
30.09790817128044
 20
96.96986591700471
 30
0.0
 11
30.09790817128044
 21
98.09268391700454
 31
0.0
  0
LINE
  5
266E
330
1F
100
AcDbEntity
  8
0
370
    20
100
AcDbLine
 10
29.96014217128061
 20
96.90406791700462
 30
0.0
 11
29.96014217128061
 21
98.02688591700445
 31
0.0
  0
LINE
  5
266F
330
1F
100
AcDbEntity
  8
0
370
    20
100
AcDbLine
 10
31.07288017128042
 20
97.0610499170046
 30
0.0
 11
31.07288017128042
 21
98.18386791700442
 31
0.0
  0
LINE
  5
2670
330
1F
100
AcDbEntity
  8
0
370
    20
100
AcDbLine
 10
31.27586017128044
 20
97.04286591700458
 30
0.0
 11
31.27586017128044
 21
98.16568191700463
 31
0.0
  0
LINE
  5
2671
330
1F
100
AcDbEntity
  8
0
370
    20
100
AcDbLine
 10
31.4605561712807
 20
97.01294991700462
 30
0.0
 11
31.4605561712807
 21
98.13576791700444
 31
0.0
  0
LINE
  5
2672
330
1F
100
AcDbEntity
  8
0
370
    20
100
AcDbLine
 10
31.62337217128072
 20
96.96986591700471
 30
0.0
 11
31.62337217128072
 21
98.09268391700454
 31
0.0
  0
LINE
  5
2673
330
1F
100
AcDbEntity
  8
0
370
    20
100
AcDbLine
 10
31.76113817128055
 20
96.90406791700462
 30
0.0
 11
31.76113817128055
 21
98.02688591700445
 31
0.0
  0
ELLIPSE
  5
2687
330
1F
100
AcDbEntity
  8
0
100
AcDbEllipse
 10
30.86064017127967
 20
98.28556191700483
 30
0.0
 11
-4.894438830807246
 21
0.0
 31
0.0
210
0.0
220
0.0
230
1.0
 40
0.255559
 41
1.76705377695862
 42
7.657724183810851
  0
LINE
  5
2688
330
1F
100
AcDbEntity
  8
0
100
AcDbLine
 10
30.90283417128114
 20
98.81306791700473
 30
0.0
 11
29.729798171281
 21
98.68033391700448
 31
0.0
  0
LINE
  5
2689
330
1F
100
AcDbEntity
  8
0
100
AcDbLine
 10
29.729798171281
 20
98.68033391700448
 30
0.0
 11
29.45004017128042
 21
98.36993191700441
 31
0.0
  0
LINE
  5
268A
330
1F
100
AcDbEntity
  8
0
100
AcDbLine
 10
30.90283417128114
 20
98.81306791700473
 30
0.0
 11
32.07632217127968
 21
98.68438791700447
 31
0.0
  0
LINE
  5
268B
330
1F
100
AcDbEntity
  8
0
100
AcDbLine
 10
32.07632217127968
 20
98.68438791700447
 30
0.0
 11
32.35715017128052
 21
98.37495391700469
 31
0.0
  0
LINE
  5
268C
330
1F
100
AcDbEntity
  8
0
370
    20
100
AcDbLine
 10
30.90283417128114
 20
98.37161191700471
 30
0.0
 11
29.729798171281
 21
98.23887791700446
 31
0.0
  0
LINE
  5
268D
330
1F
100
AcDbEntity
  8
0
370
    20
100
AcDbLine
 10
29.729798171281
 20
98.23887791700446
 30
0.0
 11
29.45004017128042
 21
97.92847591700485
 31
0.0
  0
LINE
  5
268E
330
1F
100
AcDbEntity
  8
0
100
AcDbLine
 10
29.45004017128042
 20
97.92847591700485
 30
0.0
 11
29.906224171281
 21
97.84563391700459
 31
0.0
  0
LINE
  5
268F
330
1F
100
AcDbEntity
  8
0
370
    20
100
AcDbLine
 10
30.90283417128114
 20
98.37161191700471
 30
0.0
 11
32.07632217127968
 21
98.24292991700469
 31
0.0
  0
LINE
  5
2690
330
1F
100
AcDbEntity
  8
0
370
    20
100
AcDbLine
 10
32.07632217127968
 20
98.24292991700469
 30
0.0
 11
32.35715017128052
 21
97.93349591700445
 31
0.0
  0
LINE
  5
2691
330
1F
100
AcDbEntity
  8
0
100
AcDbLine
 10
32.35715017128052
 20
97.93349591700445
 30
0.0
 11
31.81505617128016
 21
97.83311791700436
 31
0.0
  0
LINE
  5
2692
330
1F
100
AcDbEntity
  8
0
100
AcDbLine
 10
29.45004017128042
 20
98.36993191700441
 30
0.0
 11
29.45004017128042
 21
97.92847591700485
 31
0.0
  0
LINE
  5
2693
330
1F
100
AcDbEntity
  8
0
370
    20
100
AcDbLine
 10
29.729798171281
 20
98.68033391700448
 30
0.0
 11
29.729798171281
 21
98.23887791700446
 31
0.0
  0
LINE
  5
2694
330
1F
100
AcDbEntity
  8
0
370
    20
100
AcDbLine
 10
30.90283417128114
 20
98.81306791700473
 30
0.0
 11
30.90283417128114
 21
98.37161191700471
 31
0.0
  0
LINE
  5
2695
330
1F
100
AcDbEntity
  8
0
370
    20
100
AcDbLine
 10
32.07632217127968
 20
98.68438791700447
 30
0.0
 11
32.07632217127968
 21
98.24292991700469
 31
0.0
  0
LINE
  5
2696
330
1F
100
AcDbEntity
  8
0
100
AcDbLine
 10
32.35715017128052
 20
98.37495391700469
 30
0.0
 11
32.35715017128052
 21
97.93349591700445
 31
0.0
  0
ELLIPSE
  5
2697
330
1F
100
AcDbEntity
  8
0
100
AcDbEllipse
 10
30.86064017127967
 20
96.8232479170045
 30
0.0
 11
-0.9544155720074086
 21
0.0
 31
0.0
210
0.0
220
0.0
230
1.0
 40
0.639299
 41
0.0
 42
0.9365179887338829
  0
ELLIPSE
  5
2698
330
1F
100
AcDbEntity
  8
0
100
AcDbEllipse
 10
30.86064017127967
 20
96.8232479170045
 30
0.0
 11
-0.9544155720074086
 21
0.0
 31
0.0
210
0.0
220
0.0
230
1.0
 40
0.639299
 41
2.20507466485591
 42
3.141592653589793
  0
ELLIPSE
  5
2699
330
1F
100
AcDbEntity
  8
0
100
AcDbEllipse
 10
30.86064017127967
 20
96.48727991700463
 30
0.0
 11
-0.5655832037699609
 21
0.0
 31
0.0
210
0.0
220
0.0
230
1.0
 40
0.345114
 41
3.141592653589793
 42
6.283185307179586
  0
LINE
  5
269D
330
1F
100
AcDbEntity
  8
0
100
AcDbLine
 10
29.46064096738257
 20
41.64014791714391
 30
0.0
 11
29.46064096738257
 21
40.93921603591463
 31
0.0
  0
LINE
  5
269E
330
1F
100
AcDbEntity
  8
0
100
AcDbLine
 10
27.58064096737974
 20
35.66218205057322
 30
0.0
 11
27.58064096737974
 21
38.1764972898639
 31
0.0
  0
LINE
  5
269F
330
1F
100
AcDbEntity
  8
0
100
AcDbLine
 10
32.26064096736002
 20
41.64014791714618
 30
0.0
 11
32.26064096736002
 21
40.93921603592281
 31
0.0
  0
LINE
  5
26A0
330
1F
100
AcDbEntity
  8
0
100
AcDbLine
 10
34.14064096737104
 20
35.66218205057186
 30
0.0
 11
34.1406409673674
 21
38.17649728986936
 31
0.0
  0
ELLIPSE
  5
26A1
330
1F
100
AcDbEntity
  8
0
100
AcDbEllipse
 10
30.86064096738039
 20
34.31757237234052
 30
0.0
 11
-4.741127794332811
 21
-3.746733913640093E-12
 31
0.0
210
0.0
220
0.0
230
1.0
 40
0.113692730872016
 41
3.141592653589792
 42
6.283185307179586
  0
ELLIPSE
  5
26A2
330
1F
100
AcDbEntity
  8
0
100
AcDbEllipse
 10
30.86064096737948
 20
32.56985107122892
 30
0.0
 11
-3.999999999998545
 21
-3.137756721116603E-12
 31
0.0
210
0.0
220
0.0
230
1.0
 40
0.1225442556151163
 41
2.568079549167127
 42
3.874354723581442
  0
ELLIPSE
  5
26A3
330
1F
100
AcDbEntity
  8
0
100
AcDbEllipse
 10
30.86064096737948
 20
32.56985107122892
 30
0.0
 11
-3.999999999998545
 21
-3.137756721116603E-12
 31
0.0
210
0.0
220
0.0
230
1.0
 40
0.1225442556151163
 41
4.137384007673248
 42
4.604837019749351
  0
ELLIPSE
  5
26A4
330
1F
100
AcDbEntity
  8
0
100
AcDbEllipse
 10
30.86064096737948
 20
32.56985107122892
 30
0.0
 11
-3.999999999998545
 21
-3.137756721116603E-12
 31
0.0
210
0.0
220
0.0
230
1.0
 40
0.1225442556151163
 41
4.819940941019915
 42
5.287393953101382
  0
ELLIPSE
  5
26A5
330
1F
100
AcDbEntity
  8
0
100
AcDbEllipse
 10
30.86064096737948
 20
32.56985107122892
 30
0.0
 11
-3.999999999998545
 21
-3.137756721116603E-12
 31
0.0
210
0.0
220
0.0
230
1.0
 40
0.1225442556151163
 41
5.550423237194506
 42
6.856698411601919
  0
ELLIPSE
  5
26A6
330
1F
100
AcDbEntity
  8
0
100
AcDbEllipse
 10
30.86064096737857
 20
30.9648392292882
 30
0.0
 11
-3.360000000000036
 21
0.0
 31
0.0
210
0.0
220
0.0
230
1.0
 40
0.1098801970854208
 41
0.8933562359530598
 42
1.442654580765906
  0
ELLIPSE
  5
26A7
330
1F
100
AcDbEntity
  8
0
100
AcDbEllipse
 10
30.86064096737857
 20
30.9648392292882
 30
0.0
 11
-3.360000000000036
 21
0.0
 31
0.0
210
0.0
220
0.0
230
1.0
 40
0.1098801970854208
 41
1.698938072823946
 42
2.248236417630427
  0
ELLIPSE
  5
26A8
330
1F
100
AcDbEntity
  8
0
100
AcDbEllipse
 10
30.86064096737857
 20
30.9648392292882
 30
0.0
 11
-3.360000000000036
 21
0.0
 31
0.0
210
0.0
220
0.0
230
1.0
 40
0.1098801970854208
 41
2.617940843738349
 42
3.658260052188244
  0
ELLIPSE
  5
26A9
330
1F
100
AcDbEntity
  8
0
100
AcDbEllipse
 10
30.86064096737857
 20
30.9648392292882
 30
0.0
 11
-3.360000000000036
 21
0.0
 31
0.0
210
0.0
220
0.0
230
1.0
 40
0.1098801970854208
 41
4.027969283680775
 42
4.584247234355505
  0
ELLIPSE
  5
26AA
330
1F
100
AcDbEntity
  8
0
100
AcDbEllipse
 10
30.86064096737857
 20
30.9648392292882
 30
0.0
 11
-3.360000000000036
 21
0.0
 31
0.0
210
0.0
220
0.0
230
1.0
 40
0.1098801970854208
 41
4.840530726413546
 42
5.396808677094908
  0
ELLIPSE
  5
26AB
330
1F
100
AcDbEntity
  8
0
100
AcDbEllipse
 10
30.86064096737857
 20
30.9648392292882
 30
0.0
 11
-3.360000000000036
 21
0.0
 31
0.0
210
0.0
220
0.0
230
1.0
 40
0.1098801970854208
 41
5.766517908591031
 42
6.806837117021259
  0
ELLIPSE
  5
26AC
330
1F
100
AcDbEntity
  8
0
100
AcDbEllipse
 10
30.86064096737857
 20
30.9648392292882
 30
0.0
 11
-2.688000000000029
 21
0.0
 31
0.0
210
0.0
220
0.0
230
1.0
 40
0.1098801970854208
 41
0.6685106535765671
 42
1.410369889607459
  0
ELLIPSE
  5
26AD
330
1F
100
AcDbEntity
  8
0
100
AcDbEllipse
 10
30.86064096737857
 20
30.9648392292882
 30
0.0
 11
-2.688000000000029
 21
0.0
 31
0.0
210
0.0
220
0.0
230
1.0
 40
0.1098801970854208
 41
1.731222763982335
 42
2.473082000003259
  0
ELLIPSE
  5
26AE
330
1F
100
AcDbEntity
  8
0
100
AcDbEllipse
 10
30.86064096737857
 20
30.9648392292882
 30
0.0
 11
-2.688000000000029
 21
0.0
 31
0.0
210
0.0
220
0.0
230
1.0
 40
0.1098801970854208
 41
3.803110071010523
 42
4.551962543197085
  0
ELLIPSE
  5
26AF
330
1F
100
AcDbEntity
  8
0
100
AcDbEllipse
 10
30.86064096737857
 20
30.9648392292882
 30
0.0
 11
-2.688000000000029
 21
0.0
 31
0.0
210
0.0
220
0.0
230
1.0
 40
0.1098801970854208
 41
4.87281541757196
 42
5.621667889768824
  0
LINE
  5
26B0
330
1F
100
AcDbEntity
  8
0
100
AcDbLine
 10
34.22064096737915
 20
32.63203392085353
 30
0.0
 11
34.22064096737915
 21
30.9648392292882
 31
0.0
  0
LINE
  5
26B1
330
1F
100
AcDbEntity
  8
0
100
AcDbLine
 10
27.5006409673789
 20
30.9648392292882
 30
0.0
 11
27.5006409673789
 21
32.63203392085353
 31
0.0
  0
ELLIPSE
  5
26B2
330
1F
100
AcDbEntity
  8
0
100
AcDbEllipse
 10
30.86064096737857
 20
32.63203392085353
 30
0.0
 11
-3.360000000000036
 21
0.0
 31
0.0
210
0.0
220
0.0
230
1.0
 40
0.1098801970854208
 41
3.141592653589792
 42
3.62775859883145
  0
ELLIPSE
  5
26B3
330
1F
100
AcDbEntity
  8
0
100
AcDbEllipse
 10
30.86064096737857
 20
32.63203392085353
 30
0.0
 11
-3.360000000000036
 21
0.0
 31
0.0
210
0.0
220
0.0
230
1.0
 40
0.1098801970854208
 41
4.008930063649135
 42
4.584247234355372
  0
ELLIPSE
  5
26B4
330
1F
100
AcDbEntity
  8
0
100
AcDbEllipse
 10
30.86064096737857
 20
32.63203392085353
 30
0.0
 11
-3.360000000000036
 21
0.0
 31
0.0
210
0.0
220
0.0
230
1.0
 40
0.1098801970854208
 41
4.840530726413412
 42
5.415847897126546
  0
ELLIPSE
  5
26B5
330
1F
100
AcDbEntity
  8
0
100
AcDbEllipse
 10
30.86064096737857
 20
32.63203392085353
 30
0.0
 11
-3.360000000000036
 21
0.0
 31
0.0
210
0.0
220
0.0
230
1.0
 40
0.1098801970854208
 41
5.797019361948308
 42
6.283185307179586
  0
ELLIPSE
  5
26B6
330
1F
100
AcDbEntity
  8
0
100
AcDbEllipse
 10
30.8606409673713
 20
41.64014791714527
 30
0.0
 11
-1.399999999988495
 21
-1.136868377216160E-12
 31
0.0
210
0.0
220
0.0
230
1.0
 40
0.2012477597153355
 41
3.141592653589993
 42
6.283185307179586
  0
ELLIPSE
  5
26B7
330
1F
100
AcDbEntity
  8
0
100
AcDbEllipse
 10
30.86064096737039
 20
43.03830642321492
 30
0.0
 11
-1.119999999990796
 21
-9.094947017729282E-13
 31
0.0
210
0.0
220
0.0
230
1.0
 40
0.2012477597153355
 41
3.141592653589993
 42
6.283185307179586
  0
LINE
  5
26B8
330
1F
100
AcDbEntity
  8
0
100
AcDbLine
 10
29.74064096737959
 20
43.03830642321401
 30
0.0
 11
29.87404653152146
 21
41.84004595223024
 31
0.0
  0
LINE
  5
26B9
330
1F
100
AcDbEntity
  8
0
100
AcDbLine
 10
31.98064096736118
 20
43.03830642321401
 30
0.0
 11
31.84723540321932
 21
41.84004595223024
 31
0.0
  0
ELLIPSE
  5
26BA
330
1F
100
AcDbEntity
  8
0
100
AcDbEllipse
 10
30.86064096737039
 20
43.33532146575345
 30
0.0
 11
-1.119999999990796
 21
-9.094947017729282E-13
 31
0.0
210
0.0
220
0.0
230
1.0
 40
0.2012477597153355
 41
3.141592653589993
 42
6.283185307179586
  0
ELLIPSE
  5
26BB
330
1F
100
AcDbEntity
  8
0
100
AcDbEllipse
 10
30.86064096737039
 20
44.62493017415255
 30
0.0
 11
-0.806399999993373
 21
-6.548361852765084E-13
 31
0.0
210
0.0
220
0.0
230
1.0
 40
0.2012477597153355
 41
3.141592653589993
 42
6.283185307179586
  0
LINE
  5
26BC
330
1F
100
AcDbEntity
  8
0
100
AcDbLine
 10
31.6670409673635
 20
44.62493017415346
 30
0.0
 11
31.85628982769788
 21
43.43854476444568
 31
0.0
  0
LINE
  5
26BD
330
1F
100
AcDbEntity
  8
0
100
AcDbLine
 10
30.05424096737727
 20
44.6249301741521
 30
0.0
 11
29.86551049498041
 21
43.43874702309887
 31
0.0
  0
LINE
  5
26BE
330
1F
100
AcDbEntity
  8
0
100
AcDbLine
 10
29.74064096737959
 20
43.33532146575254
 30
0.0
 11
29.74064096737959
 21
43.03830642321401
 31
0.0
  0
LINE
  5
26BF
330
1F
100
AcDbEntity
  8
0
100
AcDbLine
 10
31.98064096736118
 20
43.33532146575436
 30
0.0
 11
31.98064096736118
 21
43.03830642321628
 31
0.0
  0
ARC
  5
26C0
330
1F
100
AcDbEntity
  8
0
100
AcDbCircle
 10
30.86064096737948
 20
38.05158890940157
 30
0.0
 40
3.281228526403238
100
AcDbArc
 50
358.4320753361138
 51
181.5679246561967
  0
SPLINE
  5
26C1
330
1F
100
AcDbEntity
  8
0
100
AcDbSpline
210
0.0
220
0.0
230
1.0
 70
  1064
 71
     3
 72
    10
 73
     6
 74
     4
 42
0.000000001
 43
0.0000000001
 44
0.0000000001
 12
0.01150897869232925
 22
0.9999337695115068
 32
0.0
 13
0.8566279395085679
 23
0.5159346598681065
 33
0.0
 40
0.0
 40
0.0
 40
0.0
 40
0.0
 40
0.9451935299286033
 40
1.6161315443701
 40
1.955142153165478
 40
1.955142153165478
 40
1.955142153165478
 40
1.955142153165478
 10
34.82079483950213
 20
32.63886658919756
 30
0.0
 10
34.82442091023415
 20
32.95391023229736
 30
0.0
 10
34.83098182651448
 20
33.51027749789674
 30
0.0
 10
35.21498142774868
 20
34.08439138331588
 30
0.0
 10
35.50496677528531
 20
34.25926993129732
 30
0.0
 10
35.60176876171329
 20
34.31757237234416
 30
0.0
 11
34.82079483950213
 21
32.63886658919756
 31
0.0
 11
34.93842289465181
 21
33.57671223196645
 31
0.0
 11
35.32061136850562
 21
34.12815560138527
 31
0.0
 11
35.60176876171329
 21
34.31757237234416
 31
0.0
  0
SPLINE
  5
26C2
330
1F
100
AcDbEntity
  8
0
100
AcDbSpline
210
0.0
220
0.0
230
1.0
 70
  1064
 71
     3
 72
    10
 73
     6
 74
     4
 42
0.000000001
 43
0.0000000001
 44
0.0000000001
 12
-0.01150897869232948
 22
0.9999337695114819
 32
0.0
 13
-0.8566279395123435
 23
0.5159346598619748
 33
0.0
 40
0.0
 40
0.0
 40
0.0
 40
0.0
 40
0.9451935299285841
 40
1.61613154436885
 40
1.95514215316582
 40
1.95514215316582
 40
1.95514215316582
 40
1.95514215316582
 10
26.90048709525593
 20
32.63886658919756
 30
0.0
 10
26.8968610245239
 20
32.95391023229735
 30
0.0
 10
26.89030010824229
 20
33.51027749789559
 30
0.0
 10
26.50630050701101
 20
34.08439138331686
 30
0.0
 10
26.21631515947362
 20
34.25926993129774
 30
0.0
 10
26.11951317304477
 20
34.31757237234416
 30
0.0
 11
26.90048709525593
 21
32.63886658919756
 31
0.0
 11
26.78285904010594
 21
33.5767122319664
 31
0.0
 11
26.40067056625432
 21
34.12815560138525
 31
0.0
 11
26.11951317304477
 21
34.31757237234416
 31
0.0
  0
ELLIPSE
  5
26C3
330
1F
100
AcDbEntity
  8
0
100
AcDbEllipse
 10
30.8606409673713
 20
33.99171225163792
 30
0.0
 11
-7.176484781001201
 21
0.0
 31
0.0
210
0.0
220
0.0
230
1.0
 40
0.261703349577958
 41
2.058044175490966
 42
2.302999136029771
  0
ELLIPSE
  5
26C4
330
1F
100
AcDbEntity
  8
0
100
AcDbEllipse
 10
30.8606409673713
 20
33.99171225163792
 30
0.0
 11
-7.176484781001201
 21
0.0
 31
0.0
210
0.0
220
0.0
230
1.0
 40
0.261703349577958
 41
2.450164847381363
 42
2.717071566020639
  0
ELLIPSE
  5
26C5
330
1F
100
AcDbEntity
  8
0
100
AcDbEllipse
 10
30.8606409673713
 20
33.99171225163792
 30
0.0
 11
-7.176484781001201
 21
0.0
 31
0.0
210
0.0
220
0.0
230
1.0
 40
0.261703349577958
 41
3.141592653589793
 42
6.283185307179586
  0
ELLIPSE
  5
26C6
330
1F
100
AcDbEntity
  8
0
100
AcDbEllipse
 10
30.8606409673713
 20
33.99171225163792
 30
0.0
 11
-7.176484781001201
 21
0.0
 31
0.0
210
0.0
220
0.0
230
1.0
 40
0.261703349577958
 41
0.440386428135365
 42
0.6914278062080369
  0
ELLIPSE
  5
26C7
330
1F
100
AcDbEntity
  8
0
100
AcDbEllipse
 10
30.8606409673713
 20
33.99171225163792
 30
0.0
 11
-7.176484781001201
 21
0.0
 31
0.0
210
0.0
220
0.0
230
1.0
 40
0.261703349577958
 41
0.838593517559846
 42
1.083548478101409
  0
ELLIPSE
  5
26C8
330
1F
100
AcDbEntity
  8
0
100
AcDbEllipse
 10
30.86064096737039
 20
0.8298387872831086
 30
0.0
 11
-11.48237564960192
 21
0.0
 31
0.0
210
0.0
220
0.0
230
1.0
 40
0.261703349577958
 41
0.0
 42
6.283185307179586
  0
ELLIPSE
  5
26C9
330
1F
100
AcDbEntity
  8
0
100
AcDbEllipse
 10
30.8606409673713
 20
9.360247226248987
 30
0.0
 11
-14.3529695620024
 21
0.0
 31
0.0
210
0.0
220
0.0
230
1.0
 40
0.261703349577958
 41
4.742309129796247
 42
5.204613447191301
  0
ELLIPSE
  5
26CA
330
1F
100
AcDbEntity
  8
0
100
AcDbEllipse
 10
30.8606409673713
 20
9.360247226248987
 30
0.0
 11
-14.3529695620024
 21
0.0
 31
0.0
210
0.0
220
0.0
230
1.0
 40
0.261703349577958
 41
5.272879576184227
 42
5.665083512786732
  0
ELLIPSE
  5
26CB
330
1F
100
AcDbEntity
  8
0
100
AcDbEllipse
 10
30.8606409673713
 20
9.360247226248987
 30
0.0
 11
-14.3529695620024
 21
0.0
 31
0.0
210
0.0
220
0.0
230
1.0
 40
0.261703349577958
 41
5.766196370451545
 42
6.87449901371936
  0
ELLIPSE
  5
26CC
330
1F
100
AcDbEntity
  8
0
100
AcDbEllipse
 10
30.8606409673713
 20
9.360247226248987
 30
0.0
 11
-14.3529695620024
 21
0.0
 31
0.0
210
0.0
220
0.0
230
1.0
 40
0.261703349577958
 41
0.6919520099903753
 42
1.084605189265397
  0
ELLIPSE
  5
26CD
330
1F
100
AcDbEntity
  8
0
100
AcDbEllipse
 10
30.8606409673713
 20
9.360247226248987
 30
0.0
 11
-14.3529695620024
 21
0.0
 31
0.0
210
0.0
220
0.0
230
1.0
 40
0.261703349577958
 41
1.152334084237342
 42
1.540876177383181
  0
ELLIPSE
  5
26CE
330
1F
100
AcDbEntity
  8
0
100
AcDbEllipse
 10
30.8606409673713
 20
9.360247226248987
 30
0.0
 11
-14.3529695620024
 21
0.0
 31
0.0
210
0.0
220
0.0
230
1.0
 40
0.261703349577958
 41
1.600716476206612
 42
1.98925856935238
  0
ELLIPSE
  5
26CF
330
1F
100
AcDbEntity
  8
0
100
AcDbEllipse
 10
30.8606409673713
 20
9.360247226248987
 30
0.0
 11
-14.3529695620024
 21
0.0
 31
0.0
210
0.0
220
0.0
230
1.0
 40
0.261703349577958
 41
2.056987464324326
 42
2.4496406435993
  0
ELLIPSE
  5
26D0
330
1F
100
AcDbEntity
  8
0
100
AcDbEllipse
 10
30.8606409673713
 20
9.360247226248987
 30
0.0
 11
-14.3529695620024
 21
0.0
 31
0.0
210
0.0
220
0.0
230
1.0
 40
0.261703349577958
 41
2.550278947049896
 42
3.658581590317969
  0
ELLIPSE
  5
26D1
330
1F
100
AcDbEntity
  8
0
100
AcDbEllipse
 10
30.8606409673713
 20
9.360247226248987
 30
0.0
 11
-14.3529695620024
 21
0.0
 31
0.0
210
0.0
220
0.0
230
1.0
 40
0.261703349577958
 41
3.759694447982768
 42
4.151898384585227
  0
ELLIPSE
  5
26D2
330
1F
100
AcDbEntity
  8
0
100
AcDbEllipse
 10
30.8606409673713
 20
9.360247226248987
 30
0.0
 11
-14.3529695620024
 21
0.0
 31
0.0
210
0.0
220
0.0
230
1.0
 40
0.261703349577958
 41
4.220164513578155
 42
4.682468830972816
  0
ELLIPSE
  5
26D3
330
1F
100
AcDbEntity
  8
0
100
AcDbEllipse
 10
30.86064096737039
 20
17.80985191920428
 30
0.0
 11
-9.300724276177554
 21
0.0
 31
0.0
210
0.0
220
0.0
230
1.0
 40
0.261703349577958
 41
4.325818988952128
 42
4.666206384265479
  0
ELLIPSE
  5
26D4
330
1F
100
AcDbEntity
  8
0
100
AcDbEllipse
 10
30.86064096737039
 20
17.80985191920428
 30
0.0
 11
-9.300724276177554
 21
0.0
 31
0.0
210
0.0
220
0.0
230
1.0
 40
0.261703349577958
 41
4.758571576502824
 42
5.098958971817251
  0
ELLIPSE
  5
26D5
330
1F
100
AcDbEntity
  8
0
100
AcDbEllipse
 10
30.86064096737039
 20
17.80985191920428
 30
0.0
 11
-9.300724276177554
 21
0.0
 31
0.0
210
0.0
220
0.0
230
1.0
 40
0.261703349577958
 41
5.201956016188713
 42
5.634564673596502
  0
ELLIPSE
  5
26D6
330
1F
100
AcDbEntity
  8
0
100
AcDbEllipse
 10
30.86064096737039
 20
17.80985191920428
 30
0.0
 11
-9.300724276177554
 21
0.0
 31
0.0
210
0.0
220
0.0
230
1.0
 40
0.261703349577958
 41
5.820659041899654
 42
6.488019949802498
  0
ELLIPSE
  5
26D7
330
1F
100
AcDbEntity
  8
0
100
AcDbEllipse
 10
30.86064096737039
 20
17.80985191920428
 30
0.0
 11
-9.300724276177554
 21
0.0
 31
0.0
210
0.0
220
0.0
230
1.0
 40
0.261703349577958
 41
0.401548912752992
 42
0.8649344429831152
  0
ELLIPSE
  5
26D8
330
1F
100
AcDbEntity
  8
0
100
AcDbEllipse
 10
30.86064096737039
 20
17.80985191920428
 30
0.0
 11
-9.300724276177554
 21
0.0
 31
0.0
210
0.0
220
0.0
230
1.0
 40
0.261703349577958
 41
0.9768535355465925
 42
1.524613730676615
  0
ELLIPSE
  5
26D9
330
1F
100
AcDbEntity
  8
0
100
AcDbEllipse
 10
30.86064096737039
 20
17.80985191920428
 30
0.0
 11
-9.300724276177554
 21
0.0
 31
0.0
210
0.0
220
0.0
230
1.0
 40
0.261703349577958
 41
1.616978922913962
 42
2.1647391180432
  0
ELLIPSE
  5
26DA
330
1F
100
AcDbEntity
  8
0
100
AcDbEllipse
 10
30.86064096737039
 20
17.80985191920428
 30
0.0
 11
-9.300724276177554
 21
0.0
 31
0.0
210
0.0
220
0.0
230
1.0
 40
0.261703349577958
 41
2.276658210606679
 42
2.740043740836799
  0
ELLIPSE
  5
26DB
330
1F
100
AcDbEntity
  8
0
100
AcDbEllipse
 10
30.86064096737039
 20
17.80985191920428
 30
0.0
 11
-9.300724276177554
 21
0.0
 31
0.0
210
0.0
220
0.0
230
1.0
 40
0.261703349577958
 41
2.936758010966881
 42
3.604118918869724
  0
ELLIPSE
  5
26DC
330
1F
100
AcDbEntity
  8
0
100
AcDbEllipse
 10
30.86064096737039
 20
17.80985191920428
 30
0.0
 11
-9.300724276177554
 21
0.0
 31
0.0
210
0.0
220
0.0
230
1.0
 40
0.261703349577958
 41
3.790213287172856
 42
4.222821944580664
  0
ELLIPSE
  5
26DD
330
1F
100
AcDbEntity
  8
0
100
AcDbEllipse
 10
30.8606409673713
 20
24.39652459299333
 30
0.0
 11
-7.176484781001201
 21
0.0
 31
0.0
210
0.0
220
0.0
230
1.0
 40
0.261703349577958
 41
5.145279419303586
 42
5.528237481883064
  0
ELLIPSE
  5
26DE
330
1F
100
AcDbEntity
  8
0
100
AcDbEllipse
 10
30.8606409673713
 20
24.39652459299333
 30
0.0
 11
-7.176484781001201
 21
0.0
 31
0.0
210
0.0
220
0.0
230
1.0
 40
0.261703349577958
 41
5.70693317834442
 42
6.70190473153666
  0
ELLIPSE
  5
26DF
330
1F
100
AcDbEntity
  8
0
100
AcDbEllipse
 10
30.8606409673713
 20
24.39652459299333
 30
0.0
 11
-7.176484781001201
 21
0.0
 31
0.0
210
0.0
220
0.0
230
1.0
 40
0.261703349577958
 41
0.6012384039146376
 42
0.8585447087550805
  0
ELLIPSE
  5
26E0
330
1F
100
AcDbEntity
  8
0
100
AcDbEllipse
 10
30.8606409673713
 20
24.39652459299333
 30
0.0
 11
-7.176484781001201
 21
0.0
 31
0.0
210
0.0
220
0.0
230
1.0
 40
0.261703349577958
 41
2.281716955749976
 42
2.540354249674959
  0
ELLIPSE
  5
26E1
330
1F
100
AcDbEntity
  8
0
100
AcDbEllipse
 10
30.8606409673713
 20
24.39652459299333
 30
0.0
 11
-7.176484781001201
 21
0.0
 31
0.0
210
0.0
220
0.0
230
1.0
 40
0.261703349577958
 41
2.722873229232472
 42
3.717844782425174
  0
ELLIPSE
  5
26E2
330
1F
100
AcDbEntity
  8
0
100
AcDbEllipse
 10
30.8606409673713
 20
24.39652459299333
 30
0.0
 11
-7.176484781001201
 21
0.0
 31
0.0
210
0.0
220
0.0
230
1.0
 40
0.261703349577958
 41
3.896540478886509
 42
4.279498541465932
  0
ELLIPSE
  5
26E3
330
1F
100
AcDbEntity
  8
0
100
AcDbEllipse
 10
30.8606409673713
 20
24.39652459299333
 30
0.0
 11
-7.176484781001201
 21
0.0
 31
0.0
210
0.0
220
0.0
230
1.0
 40
0.261703349577958
 41
4.401381727822559
 42
4.652521854538545
  0
ELLIPSE
  5
26E4
330
1F
100
AcDbEntity
  8
0
100
AcDbEllipse
 10
30.8606409673713
 20
24.39652459299333
 30
0.0
 11
-7.176484781001201
 21
0.0
 31
0.0
210
0.0
220
0.0
230
1.0
 40
0.261703349577958
 41
4.772256106229058
 42
5.023396232946957
  0
ELLIPSE
  5
26E5
330
1F
100
AcDbEntity
  8
0
100
AcDbEllipse
 10
30.86064096737039
 20
1.012616093283498
 30
0.0
 11
-12.63061321456211
 21
0.0
 31
0.0
210
0.0
220
0.0
230
1.0
 40
0.261703349577958
 41
0.0
 42
6.283185307179586
  0
ELLIPSE
  5
26E6
330
1F
100
AcDbEntity
  8
0
100
AcDbEllipse
 10
30.8606409673713
 20
9.735869247325638
 30
0.0
 11
-15.78826651820264
 21
0.0
 31
0.0
210
0.0
220
0.0
230
1.0
 40
0.261703349577958
 41
4.739588411672094
 42
5.135672508420153
  0
ELLIPSE
  5
26E7
330
1F
100
AcDbEntity
  8
0
100
AcDbEllipse
 10
30.8606409673713
 20
9.735869247325638
 30
0.0
 11
-15.78826651820264
 21
0.0
 31
0.0
210
0.0
220
0.0
230
1.0
 40
0.261703349577958
 41
5.199956209202602
 42
5.507654124988861
  0
ELLIPSE
  5
26E8
330
1F
100
AcDbEntity
  8
0
100
AcDbEllipse
 10
30.8606409673713
 20
9.735869247325638
 30
0.0
 11
-15.78826651820264
 21
0.0
 31
0.0
210
0.0
220
0.0
230
1.0
 40
0.261703349577958
 41
5.591212772617888
 42
5.837162668172861
  0
ELLIPSE
  5
26E9
330
1F
100
AcDbEntity
  8
0
100
AcDbEllipse
 10
30.8606409673713
 20
9.735869247325638
 30
0.0
 11
-15.78826651820264
 21
0.0
 31
0.0
210
0.0
220
0.0
230
1.0
 40
0.261703349577958
 41
6.1638096763857
 42
6.283185307179586
  0
ELLIPSE
  5
26EA
330
1F
100
AcDbEntity
  8
0
100
AcDbEllipse
 10
30.8606409673713
 20
9.735869247325638
 30
0.0
 11
-15.78826651820264
 21
0.0
 31
0.0
210
0.0
220
0.0
230
1.0
 40
0.261703349577958
 41
0.3133943202166868
 42
0.7251935322036095
  0
ELLIPSE
  5
26EB
330
1F
100
AcDbEntity
  8
0
100
AcDbEllipse
 10
30.8606409673713
 20
9.735869247325638
 30
0.0
 11
-15.78826651820264
 21
0.0
 31
0.0
210
0.0
220
0.0
230
1.0
 40
0.261703349577958
 41
0.802482379458559
 42
1.133072229258453
  0
ELLIPSE
  5
26EC
330
1F
100
AcDbEntity
  8
0
100
AcDbEllipse
 10
30.8606409673713
 20
9.735869247325638
 30
0.0
 11
-15.78826651820264
 21
0.0
 31
0.0
210
0.0
220
0.0
230
1.0
 40
0.261703349577958
 41
1.193137748328151
 42
1.543596895507319
  0
ELLIPSE
  5
26ED
330
1F
100
AcDbEntity
  8
0
100
AcDbEllipse
 10
30.8606409673713
 20
9.735869247325638
 30
0.0
 11
-15.78826651820264
 21
0.0
 31
0.0
210
0.0
220
0.0
230
1.0
 40
0.261703349577958
 41
1.597995758082474
 42
1.948454905261578
  0
ELLIPSE
  5
26EE
330
1F
100
AcDbEntity
  8
0
100
AcDbEllipse
 10
30.8606409673713
 20
9.735869247325638
 30
0.0
 11
-15.78826651820264
 21
0.0
 31
0.0
210
0.0
220
0.0
230
1.0
 40
0.261703349577958
 41
2.008520424331276
 42
2.339110274131122
  0
ELLIPSE
  5
26EF
330
1F
100
AcDbEntity
  8
0
100
AcDbEllipse
 10
30.8606409673713
 20
9.735869247325638
 30
0.0
 11
-15.78826651820264
 21
0.0
 31
0.0
210
0.0
220
0.0
230
1.0
 40
0.261703349577958
 41
2.416399121386083
 42
2.828198333372852
  0
ELLIPSE
  5
26F0
330
1F
100
AcDbEntity
  8
0
100
AcDbEllipse
 10
30.8606409673713
 20
9.735869247325638
 30
0.0
 11
-15.78826651820264
 21
0.0
 31
0.0
210
0.0
220
0.0
230
1.0
 40
0.261703349577958
 41
3.141592653588265
 42
3.260968599516212
  0
ELLIPSE
  5
26F1
330
1F
100
AcDbEntity
  8
0
100
AcDbEllipse
 10
30.8606409673713
 20
9.735869247325638
 30
0.0
 11
-15.78826651820264
 21
0.0
 31
0.0
210
0.0
220
0.0
230
1.0
 40
0.261703349577958
 41
3.587615292596742
 42
3.833565188151589
  0
ELLIPSE
  5
26F2
330
1F
100
AcDbEntity
  8
0
100
AcDbEllipse
 10
30.8606409673713
 20
9.735869247325638
 30
0.0
 11
-15.78826651820264
 21
0.0
 31
0.0
210
0.0
220
0.0
230
1.0
 40
0.261703349577958
 41
3.917123835780608
 42
4.224821751566866
  0
ELLIPSE
  5
26F3
330
1F
100
AcDbEntity
  8
0
100
AcDbEllipse
 10
30.8606409673713
 20
9.735869247325638
 30
0.0
 11
-15.78826651820264
 21
0.0
 31
0.0
210
0.0
220
0.0
230
1.0
 40
0.261703349577958
 41
4.289105452349289
 42
4.685189549096939
  0
ELLIPSE
  5
26F4
330
1F
100
AcDbEntity
  8
0
100
AcDbEllipse
 10
30.86064096736948
 20
18.24467098108681
 30
0.0
 11
-10.23079670379531
 21
0.0
 31
0.0
210
0.0
220
0.0
230
1.0
 40
0.261703349577958
 41
4.383797595998275
 42
4.670407394024481
  0
ELLIPSE
  5
26F5
330
1F
100
AcDbEntity
  8
0
100
AcDbEllipse
 10
30.86064096736948
 20
18.24467098108681
 30
0.0
 11
-10.23079670379531
 21
0.0
 31
0.0
210
0.0
220
0.0
230
1.0
 40
0.261703349577958
 41
4.75437056674383
 42
5.040980364771006
  0
ELLIPSE
  5
26F6
330
1F
100
AcDbEntity
  8
0
100
AcDbEllipse
 10
30.86064096736948
 20
18.24467098108681
 30
0.0
 11
-10.23079670379531
 21
0.0
 31
0.0
210
0.0
220
0.0
230
1.0
 40
0.261703349577958
 41
5.130868984943842
 42
5.474958215093185
  0
ELLIPSE
  5
26F7
330
1F
100
AcDbEntity
  8
0
100
AcDbEllipse
 10
30.86064096736948
 20
18.24467098108681
 30
0.0
 11
-10.23079670379531
 21
0.0
 31
0.0
210
0.0
220
0.0
230
1.0
 40
0.261703349577958
 41
5.595577611107259
 42
5.793354934149074
  0
ELLIPSE
  5
26F8
330
1F
100
AcDbEntity
  8
0
100
AcDbEllipse
 10
30.86064096736948
 20
18.24467098108681
 30
0.0
 11
-10.23079670379531
 21
0.0
 31
0.0
210
0.0
220
0.0
230
1.0
 40
0.261703349577958
 41
6.137628391070796
 42
6.153139381180122
  0
ELLIPSE
  5
26F9
330
1F
100
AcDbEntity
  8
0
100
AcDbEllipse
 10
30.86064096736948
 20
18.24467098108681
 30
0.0
 11
-10.23079670379531
 21
0.0
 31
0.0
210
0.0
220
0.0
230
1.0
 40
0.261703349577958
 41
0.2226910609286855
 42
0.4449194985390663
  0
ELLIPSE
  5
26FA
330
1F
100
AcDbEntity
  8
0
100
AcDbEllipse
 10
30.86064096736948
 20
18.24467098108681
 30
0.0
 11
-10.23079670379531
 21
0.0
 31
0.0
210
0.0
220
0.0
230
1.0
 40
0.261703349577958
 41
0.5726862056466784
 42
0.9479623876621422
  0
ELLIPSE
  5
26FB
330
1F
100
AcDbEntity
  8
0
100
AcDbEllipse
 10
30.86064096736948
 20
18.24467098108681
 30
0.0
 11
-10.23079670379531
 21
0.0
 31
0.0
210
0.0
220
0.0
230
1.0
 40
0.261703349577958
 41
1.045677237385936
 42
1.528814740435622
  0
ELLIPSE
  5
26FC
330
1F
100
AcDbEntity
  8
0
100
AcDbEllipse
 10
30.86064096736948
 20
18.24467098108681
 30
0.0
 11
-10.23079670379531
 21
0.0
 31
0.0
210
0.0
220
0.0
230
1.0
 40
0.261703349577958
 41
1.612777913154971
 42
2.095915416203917
  0
ELLIPSE
  5
26FD
330
1F
100
AcDbEntity
  8
0
100
AcDbEllipse
 10
30.86064096736948
 20
18.24467098108681
 30
0.0
 11
-10.23079670379531
 21
0.0
 31
0.0
210
0.0
220
0.0
230
1.0
 40
0.261703349577958
 41
2.19363026592776
 42
2.568906447943247
  0
ELLIPSE
  5
26FE
330
1F
100
AcDbEntity
  8
0
100
AcDbEllipse
 10
30.86064096736948
 20
18.24467098108681
 30
0.0
 11
-10.23079670379531
 21
0.0
 31
0.0
210
0.0
220
0.0
230
1.0
 40
0.261703349577958
 41
2.696673155050879
 42
2.918901592661344
  0
ELLIPSE
  5
26FF
330
1F
100
AcDbEntity
  8
0
100
AcDbEllipse
 10
30.86064096736948
 20
18.24467098108681
 30
0.0
 11
-10.23079670379531
 21
0.0
 31
0.0
210
0.0
220
0.0
230
1.0
 40
0.261703349577958
 41
3.271638579603149
 42
3.287143080652632
  0
ELLIPSE
  5
2700
330
1F
100
AcDbEntity
  8
0
100
AcDbEllipse
 10
30.86064096736948
 20
18.24467098108681
 30
0.0
 11
-10.23079670379531
 21
0.0
 31
0.0
210
0.0
220
0.0
230
1.0
 40
0.261703349577958
 41
3.631423026620074
 42
3.829200349661936
  0
ELLIPSE
  5
2701
330
1F
100
AcDbEntity
  8
0
100
AcDbEllipse
 10
30.86064096736948
 20
18.24467098108681
 30
0.0
 11
-10.23079670379531
 21
0.0
 31
0.0
210
0.0
220
0.0
230
1.0
 40
0.261703349577958
 41
3.94981974567607
 42
4.293908975825438
  0
ELLIPSE
  5
2702
330
1F
100
AcDbEntity
  8
0
100
AcDbEllipse
 10
30.8606409673713
 20
24.6040590784749
 30
0.0
 11
-7.894133259101322
 21
0.0
 31
0.0
210
0.0
220
0.0
230
1.0
 40
0.261703349577958
 41
5.097557887215455
 42
5.416391813781368
  0
ELLIPSE
  5
2703
330
1F
100
AcDbEntity
  8
0
100
AcDbEllipse
 10
30.8606409673713
 20
24.6040590784749
 30
0.0
 11
-7.894133259101322
 21
0.0
 31
0.0
210
0.0
220
0.0
230
1.0
 40
0.261703349577958
 41
5.551559115406045
 42
5.821722541998798
  0
ELLIPSE
  5
2704
330
1F
100
AcDbEntity
  8
0
100
AcDbEllipse
 10
30.8606409673713
 20
24.6040590784749
 30
0.0
 11
-7.894133259101322
 21
0.0
 31
0.0
210
0.0
220
0.0
230
1.0
 40
0.261703349577958
 41
0.3297234489666342
 42
0.578532451072379
  0
ELLIPSE
  5
2705
330
1F
100
AcDbEntity
  8
0
100
AcDbEllipse
 10
30.8606409673713
 20
24.6040590784749
 30
0.0
 11
-7.894133259101322
 21
0.0
 31
0.0
210
0.0
220
0.0
230
1.0
 40
0.261703349577958
 41
0.7175335475293295
 42
0.9332936347097245
  0
ELLIPSE
  5
2706
330
1F
100
AcDbEntity
  8
0
100
AcDbEllipse
 10
30.8606409673713
 20
24.6040590784749
 30
0.0
 11
-7.894133259101322
 21
0.0
 31
0.0
210
0.0
220
0.0
230
1.0
 40
0.261703349577958
 41
2.207117097018276
 42
2.424059106060342
  0
ELLIPSE
  5
2707
330
1F
100
AcDbEntity
  8
0
100
AcDbEllipse
 10
30.8606409673713
 20
24.6040590784749
 30
0.0
 11
-7.894133259101322
 21
0.0
 31
0.0
210
0.0
220
0.0
230
1.0
 40
0.261703349577958
 41
2.563060202517236
 42
2.811869204622858
  0
ELLIPSE
  5
2708
330
1F
100
AcDbEntity
  8
0
100
AcDbEllipse
 10
30.8606409673713
 20
24.6040590784749
 30
0.0
 11
-7.894133259101322
 21
0.0
 31
0.0
210
0.0
220
0.0
230
1.0
 40
0.261703349577958
 41
3.205253016276832
 42
3.211412529128331
  0
ELLIPSE
  5
2709
330
1F
100
AcDbEntity
  8
0
100
AcDbEllipse
 10
30.8606409673713
 20
24.6040590784749
 30
0.0
 11
-7.894133259101322
 21
0.0
 31
0.0
210
0.0
220
0.0
230
1.0
 40
0.261703349577958
 41
3.603055418770851
 42
3.873218845363492
  0
ELLIPSE
  5
270A
330
1F
100
AcDbEntity
  8
0
100
AcDbEllipse
 10
30.8606409673713
 20
24.6040590784749
 30
0.0
 11
-7.894133259101322
 21
0.0
 31
0.0
210
0.0
220
0.0
230
1.0
 40
0.261703349577958
 41
4.008386146988167
 42
4.327220073554051
  0
ELLIPSE
  5
270B
330
1F
100
AcDbEntity
  8
0
100
AcDbEllipse
 10
30.8606409673713
 20
24.6040590784749
 30
0.0
 11
-7.894133259101322
 21
0.0
 31
0.0
210
0.0
220
0.0
230
1.0
 40
0.261703349577958
 41
4.435813475726049
 42
4.657969969328632
  0
ELLIPSE
  5
270C
330
1F
100
AcDbEntity
  8
0
100
AcDbEllipse
 10
30.8606409673713
 20
24.6040590784749
 30
0.0
 11
-7.894133259101322
 21
0.0
 31
0.0
210
0.0
220
0.0
230
1.0
 40
0.261703349577958
 41
4.766807991439133
 42
4.988964485043446
  0
ELLIPSE
  5
270D
330
1F
100
AcDbEntity
  8
0
100
AcDbEllipse
 10
30.8606409673713
 20
32.96120283722468
 30
0.0
 11
-7.176484781001201
 21
0.0
 31
0.0
210
0.0
220
0.0
230
1.0
 40
0.261703349577958
 41
1.270672097488628
 42
1.510929200950719
  0
ELLIPSE
  5
270E
330
1F
100
AcDbEntity
  8
0
100
AcDbEllipse
 10
30.8606409673713
 20
32.96120283722468
 30
0.0
 11
-7.176484781001201
 21
0.0
 31
0.0
210
0.0
220
0.0
230
1.0
 40
0.261703349577958
 41
2.058044175490966
 42
2.283807487656206
  0
ELLIPSE
  5
270F
330
1F
100
AcDbEntity
  8
0
100
AcDbEllipse
 10
30.8606409673713
 20
32.96120283722468
 30
0.0
 11
-7.176484781001201
 21
0.0
 31
0.0
210
0.0
220
0.0
230
1.0
 40
0.261703349577958
 41
2.425397367763747
 42
2.697788647078399
  0
ELLIPSE
  5
2710
330
1F
100
AcDbEntity
  8
0
100
AcDbEllipse
 10
30.8606409673713
 20
32.96120283722468
 30
0.0
 11
-7.176484781001201
 21
0.0
 31
0.0
210
0.0
220
0.0
230
1.0
 40
0.261703349577958
 41
2.987927334103081
 42
6.437728695029036
  0
ELLIPSE
  5
2711
330
1F
100
AcDbEntity
  8
0
100
AcDbEllipse
 10
30.8606409673713
 20
32.96120283722468
 30
0.0
 11
-7.176484781001201
 21
0.0
 31
0.0
210
0.0
220
0.0
230
1.0
 40
0.261703349577958
 41
0.445293817260433
 42
0.7161952858257604
  0
ELLIPSE
  5
2712
330
1F
100
AcDbEntity
  8
0
100
AcDbEllipse
 10
30.8606409673713
 20
32.96120283722468
 30
0.0
 11
-7.176484781001201
 21
0.0
 31
0.0
210
0.0
220
0.0
230
1.0
 40
0.261703349577958
 41
0.8577851659334114
 42
1.083548478101409
  0
LINE
  5
2713
330
1F
100
AcDbEntity
  8
0
100
AcDbLine
 10
38.0371257483722
 20
33.99171225163792
 30
0.0
 11
38.0371257483722
 21
32.96120283722468
 31
0.0
  0
LINE
  5
2714
330
1F
100
AcDbEntity
  8
0
100
AcDbLine
 10
23.68415618636948
 20
33.99171225163792
 30
0.0
 11
23.68415618636948
 21
32.96120283722468
 31
0.0
  0
LINE
  5
2715
330
1F
100
AcDbEntity
  8
0
100
AcDbLine
 10
31.29001989004257
 20
4.31808987875803
 30
0.0
 11
31.29001989005258
 21
34.85660413869147
 31
0.0
  0
LINE
  5
2716
330
1F
100
AcDbEntity
  8
0
100
AcDbLine
 10
30.4312620446982
 20
4.31808987875803
 30
0.0
 11
30.43126204470821
 21
34.85660413869147
 31
0.0
  0
SPLINE
  5
2717
330
1F
100
AcDbEntity
  8
0
100
AcDbSpline
210
0.0
220
0.0
230
1.0
 70
  1064
 71
     3
 72
    16
 73
    12
 74
    10
 42
0.000000001
 43
0.0000000001
 44
0.0000000001
 12
0.03497510921906113
 22
-0.9993881837079721
 32
0.0
 13
0.2911140649311452
 23
-0.9566883511359737
 33
0.0
 40
0.0
 40
0.0
 40
0.0
 40
0.0
 40
3.65227284618733
 40
8.167978835264968
 40
14.71625130237995
 40
16.77684604581053
 40
21.79493344951501
 40
25.22777670187892
 40
29.60351983319293
 40
32.35138328879694
 40
34.50845469029773
 40
34.50845469029773
 40
34.50845469029773
 40
34.50845469029773
 10
23.76398519527277
 20
32.83533039727155
 30
0.0
 10
23.80656474250384
 20
31.61865095521918
 30
0.0
 10
23.9022862852218
 20
28.88348025364645
 30
0.0
 10
22.91966319662416
 20
24.04963285637158
 30
0.0
 10
21.52432126122086
 20
19.86833235218543
 30
0.0
 10
19.17006143034998
 20
15.9462677274227
 30
0.0
 10
17.26172052618838
 20
13.19761862929111
 30
0.0
 10
14.13615382611187
 20
9.523762564936321
 30
0.0
 10
16.50539805219199
 20
6.094714390997316
 30
0.0
 10
17.54052403589947
 20
3.278532691270427
 30
0.0
 10
18.02070981146262
 20
1.700497787411617
 30
0.0
 10
18.2300277528085
 20
1.012616093283498
 30
0.0
 11
23.76398519527277
 21
32.83533039727155
 31
0.0
 11
23.76398519527181
 21
29.18305755108421
 31
0.0
 11
22.98249835395642
 21
24.73548755201253
 31
0.0
 11
20.71623373408951
 21
18.59187973768098
 31
0.0
 11
19.67574434508938
 21
16.81327564232085
 31
0.0
 11
16.78879607535017
 21
12.70879871108255
 31
0.0
 11
15.07237444916771
 21
9.735869247325697
 31
0.0
 11
16.56729474948558
 21
5.623407545748493
 31
0.0
 11
17.58542516481854
 21
3.071121506132648
 31
0.0
 11
18.2300277528085
 21
1.012616093283498
 31
0.0
  0
SPLINE
  5
2718
330
1F
100
AcDbEntity
  8
0
100
AcDbSpline
210
0.0
220
0.0
230
1.0
 70
     8
 71
     3
 72
    77
 73
    73
 74
     0
 42
0.000000001
 43
0.0
 40
0.0
 40
0.0
 40
0.0
 40
0.0
 40
0.5036792071641772
 40
0.8842644739078627
 40
1.267069319885508
 40
1.523530803037171
 40
1.781093770107759
 40
2.11380978073782
 40
2.445747834301787
 40
2.77707810999862
 40
3.107874917230746
 40
3.438125592404188
 40
3.767739835429296
 40
4.096559286055395
 40
4.573198444361787
 40
5.050645288441086
 40
5.289619463550655
 40
5.52874426687562
 40
5.768022070901275
 40
6.007465738710653
 40
6.247099196187833
 40
6.486957987884676
 40
6.727089811105727
 40
6.967555022286957
 40
7.208427109369123
 40
7.449793123618561
 40
7.753225492452931
 40
8.12970335869015
 40
8.501520227951383
 40
9.037702699081008
 40
9.572741831460009
 40
9.932094980408571
 40
10.29588573685182
 40
10.66610690191623
 40
11.04476213461397
 40
11.43436175839239
 40
11.68533754572752
 40
11.80656980890013
 40
11.9242415145337
 40
12.03784840182531
 40
12.14694432701425
 40
12.2511762849721
 40
12.35033309240433
 40
12.44441128253299
 40
12.53078506477235
 40
12.5337014510324
 40
12.61117561782561
 40
12.61888100738803
 40
12.6954009968953
 40
12.72689018261089
 40
12.81235354947464
 40
12.83982660934106
 40
12.93779021042423
 40
12.9594288304552
 40
13.07315679553722
 40
13.08651426957466
 40
13.21918799522312
 40
13.22121418726378
 40
13.36319704758667
 40
13.51182769986819
 40
13.66629088950831
 40
13.82567333586481
 40
14.1553738460691
 40
14.49351398024286
 40
14.66370262740164
 40
14.87514894955165
 40
15.0824225165943
 40
15.38711325403455
 40
15.6864750497644
 40
16.08131693084403
 40
16.54637768073544
 40
16.83712875230909
 40
16.83712875230909
 40
16.83712875230909
 40
16.83712875230909
 10
24.3636343165582
 20
33.7588975880056
 30
0.0
 10
24.37511630604888
 20
32.3667791979413
 30
0.0
 10
24.39526369157386
 20
31.77760373961365
 30
0.0
 10
24.41177632898155
 20
30.93301556862644
 30
0.0
 10
24.41009212821257
 20
30.25302663565645
 30
0.0
 10
24.39289501053929
 20
29.65533612976452
 30
0.0
 10
24.3623825955666
 20
29.09159615053778
 30
0.0
 10
24.30842603094709
 20
28.47900949067736
 30
0.0
 10
24.22727297020822
 20
27.8198807564234
 30
0.0
 10
24.12583845237816
 20
27.1648823349804
 30
0.0
 10
24.00655065165313
 20
26.51406538585553
 30
0.0
 10
23.87180802589057
 20
25.86745914206932
 30
0.0
 10
23.72398053978498
 20
25.22508563809134
 30
0.0
 10
23.54148526677011
 20
24.49067891249143
 30
0.0
 10
23.32094662453176
 20
23.6642624285958
 30
0.0
 10
23.09732824833293
 20
22.90086560790206
 30
0.0
 10
22.90543211827128
 20
22.29340459829365
 30
0.0
 10
22.7545397386167
 20
21.83956047756402
 30
0.0
 10
22.59630800776733
 20
21.38788915903189
 30
0.0
 10
22.43031400537359
 20
20.93864790203435
 30
0.0
 10
22.25613412537052
 20
20.49209786138346
 30
0.0
 10
22.07334393546728
 20
20.04850317243728
 30
0.0
 10
21.88151873304844
 20
19.60813171863339
 30
0.0
 10
21.68023370802541
 20
19.1712553314631
 30
0.0
 10
21.46906543067973
 20
18.73815043632732
 30
0.0
 10
21.22878951838095
 20
18.27267836276388
 30
0.0
 10
20.93249445030335
 20
17.73459863655609
 30
0.0
 10
20.57763443250872
 20
17.12978132849395
 30
0.0
 10
20.12828310892939
 20
16.40079351243486
 30
0.0
 10
19.60990306379801
 20
15.59029644365393
 30
0.0
 10
19.07811096322814
 20
14.79849431291433
 30
0.0
 10
18.59654402285935
 20
14.11167772561686
 30
0.0
 10
18.16828441143491
 20
13.52180164077146
 30
0.0
 10
17.72255511400283
 20
12.92883623105291
 30
0.0
 10
17.25656575013011
 20
12.32969485901532
 30
0.0
 10
16.83082892582672
 20
11.80010747565967
 30
0.0
 10
16.52293556828511
 20
11.3960768220557
 30
0.0
 10
16.3335660454851
 20
11.12995698990454
 30
0.0
 10
16.20268074430726
 20
10.93472615201
 30
0.0
 10
16.08286513674932
 20
10.74195712492775
 30
0.0
 10
15.9755971931055
 20
10.55213736939851
 30
0.0
 10
15.88219715740991
 20
10.36581355007758
 30
0.0
 10
15.80377080657684
 20
10.18352372764895
 30
0.0
 10
15.74180420382174
 20
10.00755609998379
 30
0.0
 10
15.71007182171445
 20
9.889340859437027
 30
0.0
 10
15.68605489932918
 20
9.780791333410718
 30
0.0
 10
15.67567288232306
 20
9.722885248482555
 30
0.0
 10
15.66183076556001
 20
9.615981195424695
 30
0.0
 10
15.65565425319085
 20
9.538960630563281
 30
0.0
 10
15.65270923970195
 20
9.410008024590581
 30
0.0
 10
15.65621063302854
 20
9.313647854712428
 30
0.0
 10
15.66831730305705
 20
9.173571962939889
 30
0.0
 10
15.68191664169456
 20
9.076338853459959
 30
0.0
 10
15.70993663684033
 20
8.923335499450616
 30
0.0
 10
15.73226643552982
 20
8.826615509381384
 30
0.0
 10
15.7770513714305
 20
8.65933900381043
 30
0.0
 10
15.80629097467602
 20
8.564962967235545
 30
0.0
 10
15.8657615380954
 20
8.390358466532973
 30
0.0
 10
15.93414765254158
 20
8.207531803213271
 30
0.0
 10
16.05068923876581
 20
7.934581705116955
 30
0.0
 10
16.18172711361433
 20
7.655441651822741
 30
0.0
 10
16.37414586457919
 20
7.271940865020781
 30
0.0
 10
16.63438450020942
 20
6.785678696021307
 30
0.0
 10
16.89952634784379
 20
6.29390556184336
 30
0.0
 10
17.11820302882381
 20
5.866742713182987
 30
0.0
 10
17.28802575206385
 20
5.512702707054643
 30
0.0
 10
17.4846883004285
 20
5.072292838869373
 30
0.0
 10
17.68974984075714
 20
4.571660812513358
 30
0.0
 10
17.92266812065566
 20
3.947703490950801
 30
0.0
 10
18.17238803999419
 20
3.21622563075681
 30
0.0
 10
18.4058308819823
 20
2.485476455352739
 30
0.0
 10
18.55453973883152
 20
2.004044850831463
 30
0.0
 10
18.61138171782216
 20
1.818731996832241
 30
0.0
  0
SPLINE
  5
2719
330
1F
100
AcDbEntity
  8
0
100
AcDbSpline
210
0.0
220
0.0
230
1.0
 70
     8
 71
     3
 72
    16
 73
    12
 74
     0
 42
0.000000001
 43
0.0
 40
0.0
 40
0.0
 40
0.0
 40
0.0
 40
1.930018740292315
 40
3.585238025664935
 40
7.094187603237307
 40
8.095581775541081
 40
9.740630598209114
 40
12.08883569643128
 40
14.17695592570358
 40
15.55088765350512
 40
16.51513562199165
 40
16.51513562199165
 40
16.51513562199165
 40
16.51513562199165
 10
25.15665579405061
 20
34.10093480457982
 30
0.0
 10
25.33519575257117
 20
32.82233375591915
 30
0.0
 10
25.66685483702815
 20
30.44718111951607
 30
0.0
 10
25.1553674273556
 20
25.69977752354936
 30
0.0
 10
23.67227232642756
 20
21.84211902350108
 30
0.0
 10
22.21580694185388
 20
17.99104081093566
 30
0.0
 10
20.47011464538548
 20
15.18669344802339
 30
0.0
 10
17.81795822322886
 20
11.77853284931899
 30
0.0
 10
18.65106066791952
 20
7.669243039888727
 30
0.0
 10
19.90924695390106
 20
5.033191444914166
 30
0.0
 10
20.35176795331711
 20
3.534493434735225
 30
0.0
 10
20.53025757633361
 20
2.914527413834833
 30
0.0
  0
SPLINE
  5
271A
330
1F
100
AcDbEntity
  8
0
100
AcDbSpline
210
0.0
220
0.0
230
1.0
 70
     8
 71
     3
 72
    74
 73
    70
 74
     0
 42
0.000000001
 43
0.0
 40
0.0
 40
0.0
 40
0.0
 40
0.0
 40
0.5769373689436019
 40
1.01407300147978
 40
1.307501019139952
 40
1.602587764127529
 40
1.899502185172806
 40
2.048738003714556
 40
2.296184366627695
 40
2.543424440954593
 40
2.790432484258548
 40
3.037157884958285
 40
3.2835266429637
 40
3.529442846158792
 40
3.774790124303337
 40
4.034019576519425
 40
4.292384513570077
 40
4.550012132167745
 40
4.80700314249408
 40
5.063433501212167
 40
5.319356281860693
 40
5.574803661273403
 40
6.084302046250157
 40
6.591860233659464
 40
7.348922877544401
 40
7.783739028439963
 40
8.078077885077413
 40
8.375732228267315
 40
8.620860986869356
 40
8.86483640927638
 40
9.108090067329353
 40
9.351009982237533
 40
9.715507367937876
 40
10.08105651265638
 40
10.42770373295681
 40
10.7685205835405
 40
10.93584694908447
 40
11.10064340543038
 40
11.26258481779669
 40
11.42139390338434
 40
11.57686443733567
 40
11.72888870621666
 40
11.87748966709959
 40
12.02285749918614
 40
12.16538884393416
 40
12.29906084066881
 40
12.3057285913409
 40
12.4307202667603
 40
12.55774322573385
 40
12.68699377767247
 40
12.81855814470595
 40
12.95242814029007
 40
13.0885158727288
 40
13.22666686666277
 40
13.36667138086328
 40
13.5082739456783
 40
13.65118127747737
 40
13.79506878508549
 40
13.93958589416705
 40
14.08436040142494
 40
14.22900204537821
 40
14.41947624066577
 40
14.70749837982003
 40
15.19699231533136
 40
15.49806583624335
 40
15.59989071711615
 40
15.91933352935712
 40
16.2357301474282
 40
16.57239428896716
 40
16.57239428896716
 40
16.57239428896716
 40
16.57239428896716
 10
25.83509804808375
 20
34.30192756840808
 30
0.0
 10
25.88431506282643
 20
33.95643170742579
 30
0.0
 10
25.97963803521372
 20
33.28712215356592
 30
0.0
 10
26.08581071842593
 20
32.42185956878421
 30
0.0
 10
26.15259655293005
 20
31.74130522658908
 30
0.0
 10
26.19551184849672
 20
31.15250891135094
 30
0.0
 10
26.21629554814911
 20
30.65868365399939
 30
0.0
 10
26.22318868910054
 20
30.19631518605894
 30
0.0
 10
26.2184834455885
 20
29.7669807597602
 30
0.0
 10
26.19777507598531
 20
29.27287832074927
 30
0.0
 10
26.16247945098632
 20
28.78008865244084
 30
0.0
 10
26.1132850621899
 20
28.28908232080113
 30
0.0
 10
26.05087264863425
 20
27.80031952640849
 30
0.0
 10
25.97591487581315
 20
27.31425742786979
 30
0.0
 10
25.88735724769788
 20
26.82177827244669
 30
0.0
 10
25.78504412924769
 20
26.32349463661632
 30
0.0
 10
25.66920159748327
 20
25.81978523092704
 30
0.0
 10
25.54282709726897
 20
25.32016054495563
 30
0.0
 10
25.40691006292229
 20
24.82439089327119
 30
0.0
 10
25.26243128334784
 20
24.33223887724836
 30
0.0
 10
25.11036220756898
 20
23.84346181348775
 30
0.0
 10
24.8989615215097
 20
23.19652802504862
 30
0.0
 10
24.62058074331264
 20
22.39509312051979
 30
0.0
 10
24.21332342482594
 20
21.28463801634626
 30
0.0
 10
23.81025726197288
 20
20.22580465054608
 30
0.0
 10
23.45906317563379
 20
19.29928977254377
 30
0.0
 10
23.20252346668815
 20
18.66457621170713
 30
0.0
 10
22.97804935741362
 20
18.15348347382115
 30
0.0
 10
22.74885262809505
 20
17.68159049893876
 30
0.0
 10
22.5216382931477
 20
17.24936144064424
 30
0.0
 10
22.28280788886616
 20
16.82514416952546
 30
0.0
 10
21.99200673233565
 20
16.3382026462171
 30
0.0
 10
21.64395728630291
 20
15.79072178704683
 30
0.0
 10
21.24317006635022
 20
15.19516419328176
 30
0.0
 10
20.84074235156834
 20
14.61994959138184
 30
0.0
 10
20.51522529214265
 20
14.15218952502283
 30
0.0
 10
20.26527876693501
 20
13.77962218408794
 30
0.0
 10
20.08631226340469
 20
13.50308547018477
 30
0.0
 10
19.91639655082611
 20
13.22753158480083
 30
0.0
 10
19.75718495417561
 20
12.95280254529945
 30
0.0
 10
19.61025650795011
 20
12.67877100722473
 30
0.0
 10
19.47709788417535
 20
12.40531525350553
 30
0.0
 10
19.35908427606694
 20
12.13228529885629
 30
0.0
 10
19.25746647984954
 20
11.85944816038938
 30
0.0
 10
19.17468572349765
 20
11.5906955721851
 30
0.0
 10
19.13047643554557
 20
11.40721673753598
 30
0.0
 10
19.09504262230905
 20
11.23391557274255
 30
0.0
 10
19.06602118789317
 20
11.06379615943598
 30
0.0
 10
19.03784783668482
 20
10.81105953538946
 30
0.0
 10
19.02314394851157
 20
10.55279948049002
 30
0.0
 10
19.02144346541456
 20
10.28957882903779
 30
0.0
 10
19.03224342129863
 20
10.0220246434713
 30
0.0
 10
19.05500025986487
 20
9.750826424711079
 30
0.0
 10
19.089126137059
 20
9.476711797842484
 30
0.0
 10
19.13399062142264
 20
9.200432733467835
 30
0.0
 10
19.18892419507131
 20
8.922753418425884
 30
0.0
 10
19.25322293037709
 20
8.644441808692875
 30
0.0
 10
19.32615349291439
 20
8.366263662481572
 30
0.0
 10
19.40695775707638
 20
8.088978540348592
 30
0.0
 10
19.49485785403897
 20
7.813337645361401
 30
0.0
 10
19.59913343708388
 20
7.510852972664281
 30
0.0
 10
19.74433324684298
 20
7.12157917015594
 30
0.0
 10
19.98576129911373
 20
6.523048927505727
 30
0.0
 10
20.26727013910124
 20
5.861381357400944
 30
0.0
 10
20.48849817148505
 20
5.309032026262059
 30
0.0
 10
20.65744670074139
 20
4.858068193804968
 30
0.0
 10
20.81735168634725
 20
4.392883704993267
 30
0.0
 10
21.00992142887765
 20
3.773754142693008
 30
0.0
 10
21.1316036888303
 20
3.355721181855472
 30
0.0
 10
21.19375543961462
 20
3.140052093133193
 30
0.0
  0
SPLINE
  5
271B
330
1F
100
AcDbEntity
  8
0
100
AcDbSpline
210
0.0
220
0.0
230
1.0
 70
  1064
 71
     3
 72
    16
 73
    12
 74
    10
 42
0.000000001
 43
0.0000000001
 44
0.0000000001
 12
0.02713775558096822
 22
-0.9996317032897798
 32
0.0
 13
0.3226502527796559
 23
-0.9465182588736598
 33
0.0
 40
0.0
 40
0.0
 40
0.0
 40
0.0
 40
3.790504599318958
 40
7.297348362341688
 40
13.47993574317242
 40
15.58096696456519
 40
18.46433562151658
 40
22.76994188808588
 40
26.08372354597465
 40
28.21514104820374
 40
31.90300775238435
 40
31.90300775238435
 40
31.90300775238435
 40
31.90300775238435
 10
27.83672941508132
 20
34.73630232018996
 30
0.0
 10
27.87101801086294
 20
33.47326613054165
 30
0.0
 10
27.93696756739622
 20
31.04398551371439
 30
0.0
 10
28.09991833049765
 20
26.54149723377491
 30
0.0
 10
27.28059576076888
 20
22.65284418296022
 30
0.0
 10
26.23836658036645
 20
19.08072514399442
 30
0.0
 10
25.17186975427576
 20
16.17611202674953
 30
0.0
 10
22.90712493473079
 20
13.26141622572387
 30
0.0
 10
23.1901806814741
 20
9.85988805150149
 30
0.0
 10
23.83731629429263
 20
6.906989679420324
 30
0.0
 10
24.46666783779631
 20
5.060740633785142
 30
0.0
 10
24.86329821257016
 20
3.897196243185419
 30
0.0
 11
27.83672941508132
 21
34.73630232018996
 31
0.0
 11
27.94553818226158
 21
30.94735975403211
 31
0.0
 11
27.96403216280459
 21
27.44056475703912
 31
0.0
 11
26.88695407049659
 21
21.35251995557145
 31
0.0
 11
26.29236940224193
 21
19.33737696671341
 31
0.0
 11
25.21853327240881
 21
16.66143025981608
 31
0.0
 11
23.28852671996156
 21
12.81262264833021
 31
0.0
 11
23.30885534289692
 21
9.498903344700283
 31
0.0
 11
23.7561455012251
 21
7.414947471110039
 31
0.0
 11
24.86329821257016
 21
3.897196243185419
 31
0.0
  0
SPLINE
  5
271C
330
1F
100
AcDbEntity
  8
0
100
AcDbSpline
210
0.0
220
0.0
230
1.0
 70
     8
 71
     3
 72
    67
 73
    63
 74
     0
 42
0.000000001
 43
0.0
 40
0.0
 40
0.0
 40
0.0
 40
0.0
 40
1.622887759327462
 40
1.893373148591936
 40
2.397021808654394
 40
2.778605349760514
 40
3.163280450736835
 40
3.421442463363694
 40
3.681029224758603
 40
3.91031826648026
 40
4.139252907204667
 40
4.36787600057388
 40
4.596217880298823
 40
4.824296855082908
 40
5.052119729609959
 40
5.279682345993213
 40
5.506970140407956
 40
5.960604728145165
 40
6.412732919187591
 40
6.862921391074264
 40
7.397344897831261
 40
7.856203685426843
 40
7.932780242190312
 40
8.249731551009848
 40
8.569998715265601
 40
8.78547755761463
 40
9.002667141497316
 40
9.221737150532821
 40
9.44290518216718
 40
9.60790278842913
 40
9.77088937562483
 40
10.09031186024987
 40
10.39967496980042
 40
10.54998638451031
 40
10.69706381889722
 40
10.8407045979582
 40
10.98076898912764
 40
11.11721348704228
 40
11.25012960412017
 40
11.37978739951723
 40
11.50663309592685
 40
11.50668106302988
 40
11.60422236016465
 40
11.70338747081803
 40
11.80428500486619
 40
11.90696362831784
 40
12.01142036996199
 40
12.11760845731659
 40
12.22544443920214
 40
12.3348144965727
 40
12.44557994191129
 40
12.6706340152037
 40
12.89918086798179
 40
13.01427114885284
 40
13.30941497032578
 40
13.60273337989862
 40
13.89558900868182
 40
14.04225293198359
 40
14.42508707204456
 40
14.81151215301742
 40
15.33207134761977
 40
15.85809205121506
 40
15.85809205121506
 40
15.85809205121506
 40
15.85809205121506
 10
28.63643477771359
 20
34.75801252465436
 30
0.0
 10
28.66579579861093
 20
33.67648582125122
 30
0.0
 10
28.70004944186996
 20
32.41469596702774
 30
0.0
 10
28.74985843571733
 20
30.81745861731753
 30
0.0
 10
28.77533203092582
 20
30.04739640490635
 30
0.0
 10
28.7939483562742
 20
29.20097350187081
 30
0.0
 10
28.79665456078067
 20
28.51796866981596
 30
0.0
 10
28.78571478321658
 20
27.91641560053523
 30
0.0
 10
28.76592343440018
 20
27.41873489301253
 30
0.0
 10
28.73551938498997
 20
26.94112247530421
 30
0.0
 10
28.69669160034857
 20
26.48484092217979
 30
0.0
 10
28.64869058486795
 20
26.0300709993142
 30
0.0
 10
28.59203042752608
 20
25.5768766805175
 30
0.0
 10
28.52722170396385
 20
25.12531752599017
 30
0.0
 10
28.45477166500962
 20
24.67545035395352
 30
0.0
 10
28.37518394270876
 20
24.22732857331931
 30
0.0
 10
28.26029798403317
 20
23.63264870406493
 30
0.0
 10
28.10140975376191
 20
22.89408358321754
 30
0.0
 10
27.89002661369079
 20
22.01510468996986
 30
0.0
 10
27.64729964992432
 20
21.08849425458794
 30
0.0
 10
27.38677950920203
 20
20.16204238653955
 30
0.0
 10
27.17837163559864
 20
19.4798568814993
 30
0.0
 10
27.00475082037894
 20
18.93877290326492
 30
0.0
 10
26.8545842391751
 20
18.48718821600761
 30
0.0
 10
26.66169922689835
 20
17.95235416323368
 30
0.0
 10
26.47839378353558
 20
17.48501461763573
 30
0.0
 10
26.30935295201573
 20
17.08469325168636
 30
0.0
 10
26.12707820770368
 20
16.68603409029066
 30
0.0
 10
25.9473428318762
 20
16.32468888887553
 30
0.0
 10
25.77411322672208
 20
16.00212591570408
 30
0.0
 10
25.56213990700337
 20
15.62613428297374
 30
0.0
 10
25.29315014779525
 20
15.17193535106509
 30
0.0
 10
25.02653162257513
 20
14.72618690695646
 30
0.0
 10
24.82418189558678
 20
14.37592044539343
 30
0.0
 10
24.68127810588351
 20
14.11894441499754
 30
0.0
 10
24.54742121220545
 20
13.86482268199899
 30
0.0
 10
24.42416518982384
 20
13.613244655561
 30
0.0
 10
24.31293946792914
 20
13.36390850694517
 30
0.0
 10
24.21503060029329
 20
13.11646577354833
 30
0.0
 10
24.13158655567906
 20
12.87050856049547
 30
0.0
 10
24.08583800123881
 20
12.70557967610813
 30
0.0
 10
24.05043763759033
 20
12.56020448540067
 30
0.0
 10
24.02250671912873
 20
12.43198454901022
 30
0.0
 10
23.9890941449313
 20
12.23635524711318
 30
0.0
 10
23.96353866404218
 20
12.03609500561817
 30
0.0
 10
23.94554026365142
 20
11.83148154231077
 30
0.0
 10
23.93477702031589
 20
11.62283465032016
 30
0.0
 10
23.93090260189194
 20
11.41051352266669
 30
0.0
 10
23.93354380698213
 20
11.19490326928718
 30
0.0
 10
23.94229993900001
 20
10.97640497779486
 30
0.0
 10
23.96166524988905
 20
10.68021820000814
 30
0.0
 10
23.99906901613952
 20
10.30571982921748
 30
0.0
 10
24.05034792805338
 20
9.930013525705647
 30
0.0
 10
24.11660599155596
 20
9.50934012015233
 30
0.0
 10
24.19923086470328
 20
9.047561584119478
 30
0.0
 10
24.31931313386951
 20
8.472345117686302
 30
0.0
 10
24.43202765533454
 20
7.99690465926443
 30
0.0
 10
24.56841516785983
 20
7.46589544667205
 30
0.0
 10
24.73292587946446
 20
6.877765043729426
 30
0.0
 10
24.98438731096678
 20
6.055418708722584
 30
0.0
 10
25.28223709653332
 20
5.147643143083599
 30
0.0
 10
25.50736567768047
 20
4.487241912408365
 30
0.0
 10
25.62051281966899
 20
4.155316445409255
 30
0.0
  0
SPLINE
  5
271D
330
1F
100
AcDbEntity
  8
0
100
AcDbSpline
210
0.0
220
0.0
230
1.0
 70
  1064
 71
     3
 72
    16
 73
    12
 74
    10
 42
0.000000001
 43
0.0000000001
 44
0.0000000001
 12
-0.03484685319557625
 22
-0.999392663982663
 32
0.0
 13
-0.2911140711747792
 23
-0.9566883492360738
 33
0.0
 40
0.0
 40
0.0
 40
0.0
 40
0.0
 40
3.626628682070503
 40
8.142334671148284
 40
14.69060713826301
 40
16.75120188169259
 40
21.76928928539843
 40
25.20213253776265
 40
29.57787566907677
 40
32.3257391246805
 40
34.48281052618159
 40
34.48281052618159
 40
34.48281052618159
 40
34.48281052618159
 10
37.95729673946801
 20
32.80968623315476
 30
0.0
 10
37.91517120704168
 20
31.60154419987131
 30
0.0
 10
37.82010252630529
 20
28.87501800685052
 30
0.0
 10
38.80189216659183
 20
24.04965042847785
 30
0.0
 10
40.19693804886785
 20
19.86833089819209
 30
0.0
 10
42.5512293393371
 20
15.94626829521102
 30
0.0
 10
44.45955933671414
 20
13.19761849609988
 30
0.0
 10
47.58512872701441
 20
9.523762604793177
 30
0.0
 10
45.21588377277749
 20
6.094714383461756
 30
0.0
 10
44.1807579156449
 20
3.278532693323418
 30
0.0
 10
43.7005721277675
 20
1.700497786045641
 30
0.0
 10
43.49125418193228
 20
1.012616093283498
 30
0.0
 11
37.95729673946801
 21
32.80968623315476
 31
0.0
 11
37.95729673946836
 21
29.18305755108426
 31
0.0
 11
38.73878358078454
 21
24.73548755201257
 31
0.0
 11
41.00504820065084
 21
18.59187973768107
 31
0.0
 11
42.04553758964867
 21
16.81327564232073
 31
0.0
 11
44.93248585939023
 21
12.70879871108244
 31
0.0
 11
46.64890748557355
 21
9.735869247325724
 31
0.0
 11
45.15398718525555
 21
5.623407545748449
 31
0.0
 11
44.13585676992315
 21
3.071121506132677
 31
0.0
 11
43.49125418193228
 21
1.012616093283498
 31
0.0
  0
SPLINE
  5
271E
330
1F
100
AcDbEntity
  8
0
100
AcDbSpline
210
0.0
220
0.0
230
1.0
 70
     8
 71
     3
 72
    77
 73
    73
 74
     0
 42
0.000000001
 43
0.0
 40
0.0
 40
0.0
 40
0.0
 40
0.0
 40
0.5036792071641772
 40
0.8842644739078627
 40
1.267069319885508
 40
1.523530803037171
 40
1.781093770107759
 40
2.11380978073782
 40
2.445747834301787
 40
2.77707810999862
 40
3.107874917230746
 40
3.438125592404188
 40
3.767739835429296
 40
4.096559286055395
 40
4.573198444361787
 40
5.050645288441086
 40
5.289619463550655
 40
5.52874426687562
 40
5.768022070901275
 40
6.007465738710653
 40
6.247099196187833
 40
6.486957987884676
 40
6.727089811105727
 40
6.967555022286957
 40
7.208427109369123
 40
7.449793123618561
 40
7.753225492452931
 40
8.12970335869015
 40
8.501520227951383
 40
9.037702699081008
 40
9.572741831460009
 40
9.932094980408571
 40
10.29588573685182
 40
10.66610690191623
 40
11.04476213461397
 40
11.43436175839239
 40
11.68533754572752
 40
11.80656980890013
 40
11.9242415145337
 40
12.03784840182531
 40
12.14694432701425
 40
12.2511762849721
 40
12.35033309240433
 40
12.44441128253299
 40
12.53078506477235
 40
12.5337014510324
 40
12.61117561782561
 40
12.61888100738803
 40
12.6954009968953
 40
12.72689018261089
 40
12.81235354947464
 40
12.83982660934106
 40
12.93779021042423
 40
12.9594288304552
 40
13.07315679553722
 40
13.08651426957466
 40
13.21918799522312
 40
13.22121418726378
 40
13.36319704758667
 40
13.51182769986819
 40
13.66629088950831
 40
13.82567333586481
 40
14.1553738460691
 40
14.49351398024286
 40
14.66370262740164
 40
14.87514894955165
 40
15.0824225165943
 40
15.38711325403455
 40
15.6864750497644
 40
16.08131693084403
 40
16.54637768073544
 40
16.83712875230916
 40
16.83712875230916
 40
16.83712875230916
 40
16.83712875230916
 10
37.43088212448231
 20
33.71669943075113
 30
0.0
 10
37.34616562869189
 20
32.3667791979413
 30
0.0
 10
37.32601824316691
 20
31.77760373961365
 30
0.0
 10
37.30950560575923
 20
30.93301556862644
 30
0.0
 10
37.3111898065282
 20
30.25302663565645
 30
0.0
 10
37.32838692420148
 20
29.65533612976452
 30
0.0
 10
37.35889933917417
 20
29.09159615053778
 30
0.0
 10
37.41285590379368
 20
28.47900949067736
 30
0.0
 10
37.49400896453255
 20
27.8198807564234
 30
0.0
 10
37.59544348236261
 20
27.1648823349804
 30
0.0
 10
37.71473128308764
 20
26.51406538585553
 30
0.0
 10
37.8494739088502
 20
25.86745914206932
 30
0.0
 10
37.9973013949558
 20
25.22508563809134
 30
0.0
 10
38.17979666797066
 20
24.49067891249143
 30
0.0
 10
38.40033531020902
 20
23.6642624285958
 30
0.0
 10
38.62395368640784
 20
22.90086560790206
 30
0.0
 10
38.81584981646949
 20
22.29340459829365
 30
0.0
 10
38.96674219612407
 20
21.83956047756402
 30
0.0
 10
39.12497392697344
 20
21.38788915903189
 30
0.0
 10
39.29096792936718
 20
20.93864790203435
 30
0.0
 10
39.46514780937025
 20
20.49209786138346
 30
0.0
 10
39.64793799927349
 20
20.04850317243728
 30
0.0
 10
39.83976320169234
 20
19.60813171863339
 30
0.0
 10
40.04104822671536
 20
19.1712553314631
 30
0.0
 10
40.25221650406104
 20
18.73815043632732
 30
0.0
 10
40.49249241635982
 20
18.27267836276388
 30
0.0
 10
40.78878748443742
 20
17.73459863655609
 30
0.0
 10
41.14364750223206
 20
17.12978132849395
 30
0.0
 10
41.59299882581138
 20
16.40079351243486
 30
0.0
 10
42.11137887094276
 20
15.59029644365393
 30
0.0
 10
42.64317097151263
 20
14.79849431291433
 30
0.0
 10
43.12473791188143
 20
14.11167772561686
 30
0.0
 10
43.55299752330586
 20
13.52180164077146
 30
0.0
 10
43.99872682073794
 20
12.92883623105291
 30
0.0
 10
44.46471618461067
 20
12.32969485901532
 30
0.0
 10
44.89045300891405
 20
11.80010747565967
 30
0.0
 10
45.19834636645567
 20
11.3960768220557
 30
0.0
 10
45.38771588925567
 20
11.12995698990454
 30
0.0
 10
45.51860119043351
 20
10.93472615201
 30
0.0
 10
45.63841679799145
 20
10.74195712492775
 30
0.0
 10
45.74568474163527
 20
10.55213736939851
 30
0.0
 10
45.83908477733087
 20
10.36581355007758
 30
0.0
 10
45.91751112816394
 20
10.18352372764895
 30
0.0
 10
45.97947773091903
 20
10.00755609998379
 30
0.0
 10
46.01121011302632
 20
9.889340859437027
 30
0.0
 10
46.03522703541159
 20
9.780791333410718
 30
0.0
 10
46.04560905241772
 20
9.722885248482555
 30
0.0
 10
46.05945116918076
 20
9.615981195424695
 30
0.0
 10
46.06562768154993
 20
9.538960630563281
 30
0.0
 10
46.06857269503882
 20
9.410008024590581
 30
0.0
 10
46.06507130171224
 20
9.313647854712428
 30
0.0
 10
46.05296463168372
 20
9.173571962939889
 30
0.0
 10
46.03936529304622
 20
9.076338853459959
 30
0.0
 10
46.01134529790045
 20
8.923335499450616
 30
0.0
 10
45.98901549921095
 20
8.826615509381384
 30
0.0
 10
45.94423056331027
 20
8.65933900381043
 30
0.0
 10
45.91499096006476
 20
8.564962967235545
 30
0.0
 10
45.85552039664537
 20
8.390358466532973
 30
0.0
 10
45.78713428219919
 20
8.207531803213271
 30
0.0
 10
45.67059269597496
 20
7.934581705116955
 30
0.0
 10
45.53955482112644
 20
7.655441651822741
 30
0.0
 10
45.34713607016158
 20
7.271940865020781
 30
0.0
 10
45.08689743453135
 20
6.785678696021307
 30
0.0
 10
44.82175558689698
 20
6.29390556184336
 30
0.0
 10
44.60307890591696
 20
5.866742713182987
 30
0.0
 10
44.43325618267693
 20
5.512702707054643
 30
0.0
 10
44.23659363431227
 20
5.072292838869373
 30
0.0
 10
44.03153209398363
 20
4.571660812513358
 30
0.0
 10
43.79861381408512
 20
3.947703490950801
 30
0.0
 10
43.54889389474658
 20
3.21622563075681
 30
0.0
 10
43.31545105275757
 20
2.485476455352739
 30
0.0
 10
43.16674219590925
 20
2.004044850831463
 30
0.0
 10
43.10990021691862
 20
1.818731996832241
 30
0.0
  0
SPLINE
  5
271F
330
1F
100
AcDbEntity
  8
0
100
AcDbSpline
210
0.0
220
0.0
230
1.0
 70
     8
 71
     3
 72
    16
 73
    12
 74
     0
 42
0.000000001
 43
0.0
 40
0.0
 40
0.0
 40
0.0
 40
0.0
 40
1.930018740292618
 40
3.585238025665238
 40
7.094187603237609
 40
8.095581775541383
 40
9.740630598209416
 40
12.08883569643158
 40
14.17695592570388
 40
15.55088765350542
 40
16.51513562199201
 40
16.51513562199201
 40
16.51513562199201
 40
16.51513562199201
 10
36.56462614068835
 20
34.10093480458028
 30
0.0
 10
36.38608618216779
 20
32.8223337559196
 30
0.0
 10
36.05442709771353
 20
30.44718111951607
 30
0.0
 10
36.56591450738517
 20
25.69977752354936
 30
0.0
 10
38.04900960831321
 20
21.84211902350108
 30
0.0
 10
39.50547499288689
 20
17.99104081093566
 30
0.0
 10
41.25116728935529
 20
15.18669344802339
 30
0.0
 10
43.90332371151192
 20
11.77853284931899
 30
0.0
 10
43.07022126682125
 20
7.669243039888727
 30
0.0
 10
41.81203498084062
 20
5.033191444914166
 30
0.0
 10
41.36951398142367
 20
3.534493434735225
 30
0.0
 10
41.19102435840716
 20
2.914527413834833
 30
0.0
  0
SPLINE
  5
2720
330
1F
100
AcDbEntity
  8
0
100
AcDbSpline
210
0.0
220
0.0
230
1.0
 70
     8
 71
     3
 72
    74
 73
    70
 74
     0
 42
0.000000001
 43
0.0
 40
0.0
 40
0.0
 40
0.0
 40
0.0
 40
0.5769373689436019
 40
1.01407300147978
 40
1.307501019139952
 40
1.602587764127529
 40
1.899502185172806
 40
2.048738003714556
 40
2.296184366627695
 40
2.543424440954593
 40
2.790432484258548
 40
3.037157884958285
 40
3.2835266429637
 40
3.529442846158792
 40
3.774790124303337
 40
4.034019576519425
 40
4.292384513570077
 40
4.550012132167745
 40
4.80700314249408
 40
5.063433501212167
 40
5.319356281860693
 40
5.574803661273403
 40
6.084302046250157
 40
6.591860233659464
 40
7.348922877544401
 40
7.783739028439963
 40
8.078077885077413
 40
8.375732228267315
 40
8.620860986869356
 40
8.86483640927638
 40
9.108090067329353
 40
9.351009982237533
 40
9.715507367937876
 40
10.08105651265638
 40
10.42770373295681
 40
10.7685205835405
 40
10.93584694908447
 40
11.10064340543038
 40
11.26258481779669
 40
11.42139390338434
 40
11.57686443733567
 40
11.72888870621666
 40
11.87748966709959
 40
12.02285749918614
 40
12.16538884393416
 40
12.29906084066881
 40
12.3057285913409
 40
12.4307202667603
 40
12.55774322573385
 40
12.68699377767247
 40
12.81855814470595
 40
12.95242814029007
 40
13.0885158727288
 40
13.22666686666277
 40
13.36667138086328
 40
13.5082739456783
 40
13.65118127747737
 40
13.79506878508549
 40
13.93958589416705
 40
14.08436040142494
 40
14.22900204537821
 40
14.41947624066577
 40
14.70749837982003
 40
15.19699231533136
 40
15.49806583624335
 40
15.59989071711615
 40
15.91933352935712
 40
16.2357301474282
 40
16.57239428896701
 40
16.57239428896701
 40
16.57239428896701
 40
16.57239428896701
 10
35.88618388665702
 20
34.30192756840808
 30
0.0
 10
35.83696687191434
 20
33.95643170742579
 30
0.0
 10
35.74164389952705
 20
33.28712215356592
 30
0.0
 10
35.63547121631484
 20
32.42185956878421
 30
0.0
 10
35.56868538181072
 20
31.74130522658908
 30
0.0
 10
35.52577008624405
 20
31.15250891135094
 30
0.0
 10
35.50498638659167
 20
30.65868365399939
 30
0.0
 10
35.49809324564023
 20
30.19631518605894
 30
0.0
 10
35.50279848915227
 20
29.7669807597602
 30
0.0
 10
35.52350685875547
 20
29.27287832074927
 30
0.0
 10
35.55880248375445
 20
28.78008865244084
 30
0.0
 10
35.60799687255087
 20
28.28908232080113
 30
0.0
 10
35.67040928610652
 20
27.80031952640849
 30
0.0
 10
35.74536705892763
 20
27.31425742786979
 30
0.0
 10
35.8339246870429
 20
26.82177827244669
 30
0.0
 10
35.93623780549308
 20
26.32349463661632
 30
0.0
 10
36.05208033725751
 20
25.81978523092704
 30
0.0
 10
36.1784548374718
 20
25.32016054495563
 30
0.0
 10
36.31437187181848
 20
24.82439089327119
 30
0.0
 10
36.45885065139294
 20
24.33223887724836
 30
0.0
 10
36.61091972717179
 20
23.84346181348775
 30
0.0
 10
36.82232041323107
 20
23.19652802504862
 30
0.0
 10
37.10070119142813
 20
22.39509312051979
 30
0.0
 10
37.50795850991483
 20
21.28463801634626
 30
0.0
 10
37.91102467276789
 20
20.22580465054608
 30
0.0
 10
38.26221875910699
 20
19.29928977254377
 30
0.0
 10
38.51875846805262
 20
18.66457621170713
 30
0.0
 10
38.74323257732715
 20
18.15348347382115
 30
0.0
 10
38.97242930664572
 20
17.68159049893876
 30
0.0
 10
39.19964364159307
 20
17.24936144064424
 30
0.0
 10
39.43847404587461
 20
16.82514416952546
 30
0.0
 10
39.72927520240512
 20
16.3382026462171
 30
0.0
 10
40.07732464843787
 20
15.79072178704683
 30
0.0
 10
40.47811186839056
 20
15.19516419328176
 30
0.0
 10
40.88053958317244
 20
14.61994959138184
 30
0.0
 10
41.20605664259813
 20
14.15218952502283
 30
0.0
 10
41.45600316780576
 20
13.77962218408794
 30
0.0
 10
41.63496967133608
 20
13.50308547018477
 30
0.0
 10
41.80488538391467
 20
13.22753158480083
 30
0.0
 10
41.96409698056516
 20
12.95280254529945
 30
0.0
 10
42.11102542679066
 20
12.67877100722473
 30
0.0
 10
42.24418405056542
 20
12.40531525350553
 30
0.0
 10
42.36219765867384
 20
12.13228529885629
 30
0.0
 10
42.46381545489123
 20
11.85944816038938
 30
0.0
 10
42.54659621124313
 20
11.5906955721851
 30
0.0
 10
42.5908054991952
 20
11.40721673753598
 30
0.0
 10
42.62623931243172
 20
11.23391557274255
 30
0.0
 10
42.6552607468476
 20
11.06379615943598
 30
0.0
 10
42.68343409805595
 20
10.81105953538946
 30
0.0
 10
42.6981379862292
 20
10.55279948049002
 30
0.0
 10
42.69983846932621
 20
10.28957882903779
 30
0.0
 10
42.68903851344214
 20
10.0220246434713
 30
0.0
 10
42.6662816748759
 20
9.750826424711079
 30
0.0
 10
42.63215579768178
 20
9.476711797842484
 30
0.0
 10
42.58729131331813
 20
9.200432733467835
 30
0.0
 10
42.53235773966946
 20
8.922753418425884
 30
0.0
 10
42.46805900436368
 20
8.644441808692875
 30
0.0
 10
42.39512844182639
 20
8.366263662481572
 30
0.0
 10
42.31432417766439
 20
8.088978540348592
 30
0.0
 10
42.2264240807018
 20
7.813337645361401
 30
0.0
 10
42.12214849765689
 20
7.510852972664281
 30
0.0
 10
41.97694868789779
 20
7.12157917015594
 30
0.0
 10
41.73552063562704
 20
6.523048927505727
 30
0.0
 10
41.45401179563953
 20
5.861381357400944
 30
0.0
 10
41.23278376325572
 20
5.309032026262059
 30
0.0
 10
41.06383523399938
 20
4.858068193804968
 30
0.0
 10
40.90393024839352
 20
4.392883704993267
 30
0.0
 10
40.71136050586313
 20
3.773754142693463
 30
0.0
 10
40.58967824591048
 20
3.355721181855472
 30
0.0
 10
40.52752649512706
 20
3.140052093133647
 30
0.0
  0
SPLINE
  5
2721
330
1F
100
AcDbEntity
  8
0
100
AcDbSpline
210
0.0
220
0.0
230
1.0
 70
  1064
 71
     3
 72
    16
 73
    12
 74
    10
 42
0.000000001
 43
0.0000000001
 44
0.0000000001
 12
-0.02713775558024863
 22
-0.9996317032897998
 32
0.0
 13
-0.322650252780335
 23
-0.9465182588734283
 33
0.0
 40
0.0
 40
0.0
 40
0.0
 40
0.0
 40
3.790504599318925
 40
7.29734836234165
 40
13.47993574317201
 40
15.5809669645648
 40
18.46433562151648
 40
22.76994188808633
 40
26.08372354597511
 40
28.21514104820383
 40
31.90300775238499
 40
31.90300775238499
 40
31.90300775238499
 40
31.90300775238499
 10
33.88455251965945
 20
34.73630232018996
 30
0.0
 10
33.85026392387874
 20
33.47326613054163
 30
0.0
 10
33.78431436734363
 20
31.0439855137144
 30
0.0
 10
33.6213636042468
 20
26.54149723377514
 30
0.0
 10
34.4406861739708
 20
22.65284418296
 30
0.0
 10
35.48291535437433
 20
19.08072514399439
 30
0.0
 10
36.54941218046523
 20
16.17611202674946
 30
0.0
 10
38.81415700001352
 20
13.2614162257241
 30
0.0
 10
38.53110125326486
 20
9.859888051501915
 30
0.0
 10
37.88396564045173
 20
6.906989679419663
 30
0.0
 10
37.25461409694536
 20
5.060740633785034
 30
0.0
 10
36.85798372217062
 20
3.897196243185419
 30
0.0
 11
33.88455251965945
 21
34.73630232018996
 31
0.0
 11
33.77574375247937
 21
30.94735975403214
 31
0.0
 11
33.75724977193801
 21
27.44056475703914
 31
0.0
 11
34.83432786424373
 21
21.35251995557144
 31
0.0
 11
35.42891253249866
 21
19.33737696671346
 31
0.0
 11
36.50274866233248
 21
16.66143025981609
 31
0.0
 11
38.432755214781
 21
12.81262264833025
 31
0.0
 11
38.41242659184368
 21
9.498903344700324
 31
0.0
 11
37.9651364335176
 21
7.414947471110025
 31
0.0
 11
36.85798372217062
 21
3.897196243185419
 31
0.0
  0
SPLINE
  5
2722
330
1F
100
AcDbEntity
  8
0
100
AcDbSpline
210
0.0
220
0.0
230
1.0
 70
     8
 71
     3
 72
    67
 73
    63
 74
     0
 42
0.000000001
 43
0.0
 40
0.0
 40
0.0
 40
0.0
 40
0.0
 40
1.622887759327462
 40
1.893373148591936
 40
2.397021808654394
 40
2.778605349760514
 40
3.163280450736835
 40
3.421442463363694
 40
3.681029224758603
 40
3.91031826648026
 40
4.139252907204667
 40
4.36787600057388
 40
4.596217880298823
 40
4.824296855082908
 40
5.052119729609959
 40
5.279682345993213
 40
5.506970140407956
 40
5.960604728145165
 40
6.412732919187591
 40
6.862921391074264
 40
7.397344897831261
 40
7.856203685426843
 40
7.932780242190312
 40
8.249731551009848
 40
8.569998715265601
 40
8.78547755761463
 40
9.002667141497316
 40
9.221737150532821
 40
9.44290518216718
 40
9.60790278842913
 40
9.77088937562483
 40
10.09031186024987
 40
10.39967496980042
 40
10.54998638451031
 40
10.69706381889722
 40
10.8407045979582
 40
10.98076898912764
 40
11.11721348704228
 40
11.25012960412017
 40
11.37978739951723
 40
11.50663309592685
 40
11.50668106302988
 40
11.60422236016465
 40
11.70338747081803
 40
11.80428500486619
 40
11.90696362831784
 40
12.01142036996199
 40
12.11760845731659
 40
12.22544443920214
 40
12.3348144965727
 40
12.44557994191129
 40
12.6706340152037
 40
12.89918086798179
 40
13.01427114885284
 40
13.30941497032578
 40
13.60273337989862
 40
13.89558900868182
 40
14.04225293198359
 40
14.42508707204456
 40
14.81151215301742
 40
15.33207134761977
 40
15.85809205121506
 40
15.85809205121506
 40
15.85809205121506
 40
15.85809205121506
 10
33.08484715702718
 20
34.75801252465436
 30
0.0
 10
33.05548613612984
 20
33.67648582125122
 30
0.0
 10
33.02123249287081
 20
32.41469596702774
 30
0.0
 10
32.97142349902344
 20
30.81745861731753
 30
0.0
 10
32.94594990381495
 20
30.04739640490635
 30
0.0
 10
32.92733357846657
 20
29.20097350187081
 30
0.0
 10
32.92462737396011
 20
28.51796866981596
 30
0.0
 10
32.9355671515242
 20
27.91641560053523
 30
0.0
 10
32.95535850034059
 20
27.41873489301253
 30
0.0
 10
32.9857625497508
 20
26.94112247530421
 30
0.0
 10
33.0245903343922
 20
26.48484092217979
 30
0.0
 10
33.07259134987282
 20
26.0300709993142
 30
0.0
 10
33.12925150721469
 20
25.5768766805175
 30
0.0
 10
33.19406023077693
 20
25.12531752599017
 30
0.0
 10
33.26651026973116
 20
24.67545035395352
 30
0.0
 10
33.34609799203201
 20
24.22732857331931
 30
0.0
 10
33.4609839507076
 20
23.63264870406493
 30
0.0
 10
33.61987218097886
 20
22.89408358321754
 30
0.0
 10
33.83125532104998
 20
22.01510468996986
 30
0.0
 10
34.07398228481645
 20
21.08849425458794
 30
0.0
 10
34.33450242553874
 20
20.16204238653955
 30
0.0
 10
34.54291029914214
 20
19.4798568814993
 30
0.0
 10
34.71653111436183
 20
18.93877290326492
 30
0.0
 10
34.86669769556568
 20
18.48718821600761
 30
0.0
 10
35.05958270784242
 20
17.95235416323368
 30
0.0
 10
35.24288815120519
 20
17.48501461763573
 30
0.0
 10
35.41192898272504
 20
17.08469325168636
 30
0.0
 10
35.5942037270371
 20
16.68603409029066
 30
0.0
 10
35.77393910286457
 20
16.32468888887553
 30
0.0
 10
35.94716870801869
 20
16.00212591570408
 30
0.0
 10
36.1591420277374
 20
15.62613428297374
 30
0.0
 10
36.42813178694553
 20
15.17193535106509
 30
0.0
 10
36.69475031216564
 20
14.72618690695646
 30
0.0
 10
36.897100039154
 20
14.37592044539343
 30
0.0
 10
37.04000382885727
 20
14.11894441499754
 30
0.0
 10
37.17386072253532
 20
13.86482268199899
 30
0.0
 10
37.29711674491693
 20
13.613244655561
 30
0.0
 10
37.40834246681163
 20
13.36390850694517
 30
0.0
 10
37.50625133444748
 20
13.11646577354833
 30
0.0
 10
37.58969537906171
 20
12.87050856049547
 30
0.0
 10
37.63544393350196
 20
12.70557967610813
 30
0.0
 10
37.67084429715044
 20
12.56020448540067
 30
0.0
 10
37.69877521561205
 20
12.43198454901022
 30
0.0
 10
37.73218778980947
 20
12.23635524711318
 30
0.0
 10
37.7577432706986
 20
12.03609500561817
 30
0.0
 10
37.77574167108935
 20
11.83148154231077
 30
0.0
 10
37.78650491442488
 20
11.62283465032016
 30
0.0
 10
37.79037933284883
 20
11.41051352266669
 30
0.0
 10
37.78773812775864
 20
11.19490326928718
 30
0.0
 10
37.77898199574076
 20
10.97640497779486
 30
0.0
 10
37.75961668485172
 20
10.68021820000814
 30
0.0
 10
37.72221291860126
 20
10.30571982921748
 30
0.0
 10
37.67093400668739
 20
9.930013525705647
 30
0.0
 10
37.60467594318482
 20
9.50934012015233
 30
0.0
 10
37.52205107003749
 20
9.047561584119478
 30
0.0
 10
37.40196880087126
 20
8.472345117686302
 30
0.0
 10
37.28925427940624
 20
7.99690465926443
 30
0.0
 10
37.15286676688095
 20
7.46589544667205
 30
0.0
 10
36.98835605527631
 20
6.877765043729426
 30
0.0
 10
36.73689462377399
 20
6.055418708722584
 30
0.0
 10
36.43904483820745
 20
5.147643143083599
 30
0.0
 10
36.2139162570603
 20
4.487241912408365
 30
0.0
 10
36.10076911507178
 20
4.155316445409255
 30
0.0
  0
LINE
  5
2723
330
1F
100
AcDbEntity
  8
0
284
     3
100
AcDbLine
 10
31.29001989004257
 20
-2.167320932434166
 30
0.0
 11
31.29001989004439
 21
3.832713206733672
 31
0.0
  0
LINE
  5
2724
330
1F
100
AcDbEntity
  8
0
284
     3
100
AcDbLine
 10
30.4312620446982
 20
-2.167320932434166
 30
0.0
 11
30.43126204470002
 21
3.832713206733672
 31
0.0
  0
SPLINE
  5
2725
330
1F
100
AcDbEntity
  8
0
100
AcDbSpline
210
0.0
220
0.0
230
1.0
 70
     8
 71
     3
 72
     9
 73
     5
 74
     0
 42
0.000000001
 43
0.0
 40
14.62648478867551
 40
14.62648478867551
 40
14.62648478867551
 40
14.62648478867551
 40
15.55088765350542
 40
16.1750715269211
 40
16.1750715269211
 40
16.1750715269211
 40
16.1750715269211
 10
41.23409481347073
 20
2.118217052005832
 30
0.0
 10
41.04616185914995
 20
1.474659768288632
 30
0.0
 10
40.67733419272474
 20
0.5210839044164572
 30
0.0
 10
40.40795763260132
 20
-0.4745922519002193
 30
0.0
 10
40.3061873507769
 20
-0.8787975920119493
 30
0.0
  0
SPLINE
  5
2726
330
1F
100
AcDbEntity
  8
0
100
AcDbSpline
210
0.0
220
0.0
230
1.0
 70
     8
 71
     3
 72
    14
 73
    10
 74
     0
 42
0.000000001
 43
0.0
 40
15.04968176514306
 40
15.04968176514306
 40
15.04968176514306
 40
15.04968176514306
 40
15.24413072816976
 40
15.44310593469292
 40
15.73976688317027
 40
16.0403725391905
 40
16.32449089202706
 40
16.67688984371514
 40
16.8756106634264
 40
16.8756106634264
 40
16.8756106634264
 40
16.8756106634264
 10
40.68640613104992
 20
2.384702267962723
 30
0.0
 10
40.65112254941516
 20
2.259961220886282
 30
0.0
 10
40.57551543537113
 20
2.008765582815897
 30
0.0
 10
40.43181276238931
 20
1.571696137511765
 30
0.0
 10
40.25718009653622
 20
1.070424527210719
 30
0.0
 10
40.06893271226465
 20
0.513724900572754
 30
0.0
 10
39.8916654249889
 20
-0.0854904600325312
 30
0.0
 10
39.75026746112155
 20
-0.6241284716449513
 30
0.0
 10
39.66244632242444
 20
-0.9808950771795821
 30
0.0
 10
39.63118914108156
 20
-1.10963616054795
 30
0.0
  0
SPLINE
  5
2727
330
1F
100
AcDbEntity
  8
0
100
AcDbSpline
210
0.0
220
0.0
230
1.0
 70
     8
 71
     3
 72
    10
 73
     6
 74
     0
 42
0.000000001
 43
0.0
 40
12.81614501930956
 40
12.81614501930956
 40
12.81614501930956
 40
12.81614501930956
 40
13.04186177298756
 40
14.10757052410187
 40
15.53943740885498
 40
15.53943740885498
 40
15.53943740885498
 40
15.53943740885498
 10
36.6885910895063
 20
3.418982434989005
 30
0.0
 10
36.5867558826277
 20
3.113779710637402
 30
0.0
 10
36.39770417756074
 20
2.44412695801185
 30
0.0
 10
35.97866153528059
 20
0.7867472716641828
 30
0.0
 10
35.79338621138425
 20
-0.8270385723168943
 30
0.0
 10
35.57322793332708
 20
-1.910389924241088
 30
0.0
  0
SPLINE
  5
2728
330
1F
100
AcDbEntity
  8
0
100
AcDbSpline
210
0.0
220
0.0
230
1.0
 70
     8
 71
     3
 72
    56
 73
    52
 74
     0
 42
0.000000001
 43
0.0
 40
0.0543379434346876
 40
0.0543379434346876
 40
0.0543379434346876
 40
0.0543379434346876
 40
0.0604215964867676
 40
0.0648200695153035
 40
0.0901369648190959
 40
0.0933433032852605
 40
0.1174830734604527
 40
0.1195799246063578
 40
0.1427068255318405
 40
0.1437531465409756
 40
0.1660565742576774
 40
0.1660789626904823
 40
0.1867629568335827
 40
0.2059969585019053
 40
0.2239564219461778
 40
0.2407998764520987
 40
0.2566720407795018
 40
0.2717117138292622
 40
0.2998945433386068
 40
0.3648873623765883
 40
0.4310854518971218
 40
0.4984120108395725
 40
0.5667911131274209
 40
0.6361476917212888
 40
0.7064075363958758
 40
0.7774973036135508
 40
0.8493445373675433
 40
0.921877700261829
 40
0.9950262144127069
 40
1.06872051202059
 40
1.142892095685534
 40
1.217473608737869
 40
1.292398916034934
 40
1.393169766559483
 40
1.493857652766269
 40
1.5946363529938
 40
1.695681817623704
 40
1.797172674179146
 40
1.899290674153769
 40
2.002221081298142
 40
2.106152999253332
 40
2.211279635218005
 40
2.317798496014645
 40
2.421784611159613
 40
2.42591153559407
 40
2.526737578557627
 40
2.535825184645131
 40
2.634078595969682
 40
2.647750326959336
 40
2.743941957879202
 40
2.761902216112992
 40
2.761902216112992
 40
2.761902216112992
 40
2.761902216112992
 10
36.08526526488379
 20
3.505725162428291
 30
0.0
 10
36.08399932659279
 20
3.501872025034402
 30
0.0
 10
36.08182013572889
 20
3.495232411762402
 30
0.0
 10
36.07438998765713
 20
3.472552476327394
 30
0.0
 10
36.06759007438916
 20
3.451684575164393
 30
0.0
 10
36.05677282352292
 20
3.418283892981265
 30
0.0
 10
36.05075805721128
 20
3.399599454576048
 30
0.0
 10
36.04073660979077
 20
3.368253423141425
 30
0.0
 10
36.03543604047638
 20
3.351561365380178
 30
0.0
 10
36.02612343838803
 20
3.322009539296971
 30
0.0
 10
36.02147217792765
 20
3.30713846238524
 30
0.0
 10
36.01297812789119
 20
3.279752263242528
 30
0.0
 10
36.00514650983052
 20
3.254303000199627
 30
0.0
 10
35.99397644036083
 20
3.217370071519156
 30
0.0
 10
35.98371882085496
 20
3.182836541134577
 30
0.0
 10
35.97425795861921
 20
3.150404795217412
 30
0.0
 10
35.96548265171816
 20
3.119801104903502
 30
0.0
 10
35.95477447686073
 20
3.081887750465569
 30
0.0
 10
35.93549258933228
 20
3.012368489144421
 30
0.0
 10
35.90737003175866
 20
2.909908537875538
 30
0.0
 10
35.87282845458969
 20
2.782150282233317
 30
0.0
 10
35.8382384052976
 20
2.652067724977144
 30
0.0
 10
35.80369373963924
 20
2.519795587967394
 30
0.0
 10
35.76929029877931
 20
2.385466987236953
 30
0.0
 10
35.73512330029746
 20
2.249214146809493
 30
0.0
 10
35.70128810958533
 20
2.111168251490483
 30
0.0
 10
35.66788008314427
 20
1.971459513319871
 30
0.0
 10
35.63499466714177
 20
1.830217159874167
 30
0.0
 10
35.60272742674636
 20
1.687569426830862
 30
0.0
 10
35.57117410466992
 20
1.543643532309318
 30
0.0
 10
35.54043065242251
 20
1.398565646156214
 30
0.0
 10
35.51059336902574
 20
1.252460829084441
 30
0.0
 10
35.47847799314252
 20
1.088727178186502
 30
0.0
 10
35.44474485161675
 20
0.9075818716190156
 30
0.0
 10
35.40968261710907
 20
0.7091621037459959
 30
0.0
 10
35.3760582358583
 20
0.5103087458799678
 30
0.0
 10
35.34345717540793
 20
0.310743347939308
 30
0.0
 10
35.31146892296704
 20
0.1101750562846178
 30
0.0
 10
35.27968733577393
 20
-0.0916980484536793
 30
0.0
 10
35.24771049473668
 20
-0.2951877932816274
 30
0.0
 10
35.2151403813524
 20
-0.5006146330717343
 30
0.0
 10
35.18158235697877
 20
-0.7083064455611634
 30
0.0
 10
35.14709544247228
 20
-0.9158830347025173
 30
0.0
 10
35.12283548071366
 20
-1.056900523516731
 30
0.0
 10
35.09873640194485
 20
-1.194092697504573
 30
0.0
 10
35.08532559197477
 20
-1.26892853879616
 30
0.0
 10
35.06028837642964
 20
-1.405429347470715
 30
0.0
 10
35.04541388721839
 20
-1.484722594636139
 30
0.0
 10
35.01920562143471
 20
-1.620969251030317
 30
0.0
 10
34.92887149628052
 20
-1.980207566408069
 30
0.0
 10
34.93635442283733
 20
-1.970533319795493
 30
0.0
 10
34.93467607458035
 20
-1.979631549093654
 30
0.0
  0
SPLINE
  5
2729
330
1F
100
AcDbEntity
  8
0
100
AcDbSpline
210
0.0
220
0.0
230
1.0
 70
     8
 71
     3
 72
     9
 73
     5
 74
     0
 42
0.000000001
 43
0.0
 40
14.62648478867551
 40
14.62648478867551
 40
14.62648478867551
 40
14.62648478867551
 40
15.55088765350542
 40
16.1750715269211
 40
16.1750715269211
 40
16.1750715269211
 40
16.1750715269211
 10
20.48718712127004
 20
2.118217052005832
 30
0.0
 10
20.67512007559083
 20
1.474659768288632
 30
0.0
 10
21.04394774201603
 20
0.5210839044164572
 30
0.0
 10
21.31332430213945
 20
-0.4745922519002193
 30
0.0
 10
21.41509458396388
 20
-0.8787975920119493
 30
0.0
  0
SPLINE
  5
272A
330
1F
100
AcDbEntity
  8
0
100
AcDbSpline
210
0.0
220
0.0
230
1.0
 70
     8
 71
     3
 72
    14
 73
    10
 74
     0
 42
0.000000001
 43
0.0
 40
15.04968176514306
 40
15.04968176514306
 40
15.04968176514306
 40
15.04968176514306
 40
15.24413072816976
 40
15.44310593469292
 40
15.73976688317027
 40
16.0403725391905
 40
16.32449089202706
 40
16.67688984371514
 40
16.8756106634264
 40
16.8756106634264
 40
16.8756106634264
 40
16.8756106634264
 10
21.03487580369085
 20
2.384702267962723
 30
0.0
 10
21.07015938532561
 20
2.259961220886282
 30
0.0
 10
21.14576649936964
 20
2.008765582815897
 30
0.0
 10
21.28946917235146
 20
1.571696137511765
 30
0.0
 10
21.46410183820456
 20
1.070424527210719
 30
0.0
 10
21.65234922247612
 20
0.513724900572754
 30
0.0
 10
21.82961650975187
 20
-0.0854904600325312
 30
0.0
 10
21.97101447361922
 20
-0.6241284716449513
 30
0.0
 10
22.05883561231633
 20
-0.9808950771795821
 30
0.0
 10
22.09009279365921
 20
-1.10963616054795
 30
0.0
  0
SPLINE
  5
272B
330
1F
100
AcDbEntity
  8
0
100
AcDbSpline
210
0.0
220
0.0
230
1.0
 70
     8
 71
     3
 72
    10
 73
     6
 74
     0
 42
0.000000001
 43
0.0
 40
12.81614501930956
 40
12.81614501930956
 40
12.81614501930956
 40
12.81614501930956
 40
13.04186177298756
 40
14.10757052410187
 40
15.53943740885498
 40
15.53943740885498
 40
15.53943740885498
 40
15.53943740885498
 10
25.03269084523447
 20
3.418982434989005
 30
0.0
 10
25.13452605211307
 20
3.113779710637402
 30
0.0
 10
25.32357775718003
 20
2.44412695801185
 30
0.0
 10
25.74262039946018
 20
0.7867472716641828
 30
0.0
 10
25.92789572335653
 20
-0.8270385723168943
 30
0.0
 10
26.1480540014137
 20
-1.910389924241088
 30
0.0
  0
SPLINE
  5
272C
330
1F
100
AcDbEntity
  8
0
100
AcDbSpline
210
0.0
220
0.0
230
1.0
 70
     8
 71
     3
 72
    56
 73
    52
 74
     0
 42
0.000000001
 43
0.0
 40
0.0543379434346876
 40
0.0543379434346876
 40
0.0543379434346876
 40
0.0543379434346876
 40
0.0604215964867676
 40
0.0648200695153035
 40
0.0901369648190959
 40
0.0933433032852605
 40
0.1174830734604527
 40
0.1195799246063578
 40
0.1427068255318405
 40
0.1437531465409756
 40
0.1660565742576774
 40
0.1660789626904823
 40
0.1867629568335827
 40
0.2059969585019053
 40
0.2239564219461778
 40
0.2407998764520987
 40
0.2566720407795018
 40
0.2717117138292622
 40
0.2998945433386068
 40
0.3648873623765883
 40
0.4310854518971218
 40
0.4984120108395725
 40
0.5667911131274209
 40
0.6361476917212888
 40
0.7064075363958758
 40
0.7774973036135508
 40
0.8493445373675433
 40
0.921877700261829
 40
0.9950262144127069
 40
1.06872051202059
 40
1.142892095685534
 40
1.217473608737869
 40
1.292398916034934
 40
1.393169766559483
 40
1.493857652766269
 40
1.5946363529938
 40
1.695681817623704
 40
1.797172674179146
 40
1.899290674153769
 40
2.002221081298142
 40
2.106152999253332
 40
2.211279635218005
 40
2.317798496014645
 40
2.421784611159613
 40
2.42591153559407
 40
2.526737578557627
 40
2.535825184645131
 40
2.634078595969682
 40
2.647750326959336
 40
2.743941957879202
 40
2.761902216112992
 40
2.761902216112992
 40
2.761902216112992
 40
2.761902216112992
 10
25.63601666985699
 20
3.505725162428291
 30
0.0
 10
25.63728260814798
 20
3.501872025034402
 30
0.0
 10
25.63946179901188
 20
3.495232411762402
 30
0.0
 10
25.64689194708365
 20
3.472552476327394
 30
0.0
 10
25.65369186035161
 20
3.451684575164393
 30
0.0
 10
25.66450911121785
 20
3.418283892981265
 30
0.0
 10
25.67052387752949
 20
3.399599454576048
 30
0.0
 10
25.68054532495
 20
3.368253423141425
 30
0.0
 10
25.68584589426439
 20
3.351561365380178
 30
0.0
 10
25.69515849635275
 20
3.322009539296971
 30
0.0
 10
25.69980975681312
 20
3.30713846238524
 30
0.0
 10
25.70830380684959
 20
3.279752263242528
 30
0.0
 10
25.71613542491025
 20
3.254303000199627
 30
0.0
 10
25.72730549437995
 20
3.217370071519156
 30
0.0
 10
25.73756311388581
 20
3.182836541134577
 30
0.0
 10
25.74702397612157
 20
3.150404795217412
 30
0.0
 10
25.75579928302261
 20
3.119801104903502
 30
0.0
 10
25.76650745788004
 20
3.081887750465569
 30
0.0
 10
25.78578934540849
 20
3.012368489144421
 30
0.0
 10
25.81391190298211
 20
2.909908537875538
 30
0.0
 10
25.84845348015108
 20
2.782150282233317
 30
0.0
 10
25.88304352944317
 20
2.652067724977144
 30
0.0
 10
25.91758819510153
 20
2.519795587967394
 30
0.0
 10
25.95199163596146
 20
2.385466987236953
 30
0.0
 10
25.98615863444331
 20
2.249214146809493
 30
0.0
 10
26.01999382515544
 20
2.111168251490483
 30
0.0
 10
26.0534018515965
 20
1.971459513319871
 30
0.0
 10
26.086287267599
 20
1.830217159874167
 30
0.0
 10
26.11855450799442
 20
1.687569426830862
 30
0.0
 10
26.15010783007085
 20
1.543643532309318
 30
0.0
 10
26.18085128231826
 20
1.398565646156214
 30
0.0
 10
26.21068856571503
 20
1.252460829084441
 30
0.0
 10
26.24280394159825
 20
1.088727178186502
 30
0.0
 10
26.27653708312403
 20
0.9075818716190156
 30
0.0
 10
26.3115993176317
 20
0.7091621037459959
 30
0.0
 10
26.34522369888248
 20
0.5103087458799678
 30
0.0
 10
26.37782475933284
 20
0.310743347939308
 30
0.0
 10
26.40981301177374
 20
0.1101750562846178
 30
0.0
 10
26.44159459896684
 20
-0.0916980484536793
 30
0.0
 10
26.47357144000409
 20
-0.2951877932816274
 30
0.0
 10
26.50614155338837
 20
-0.5006146330717343
 30
0.0
 10
26.53969957776201
 20
-0.7083064455611634
 30
0.0
 10
26.5741864922685
 20
-0.9158830347025173
 30
0.0
 10
26.59844645402711
 20
-1.056900523516731
 30
0.0
 10
26.62254553279593
 20
-1.194092697504573
 30
0.0
 10
26.63595634276601
 20
-1.26892853879616
 30
0.0
 10
26.66099355831113
 20
-1.405429347470715
 30
0.0
 10
26.67586804752239
 20
-1.484722594636139
 30
0.0
 10
26.70207631330607
 20
-1.620969251030317
 30
0.0
 10
26.79241043846025
 20
-1.980207566408069
 30
0.0
 10
26.78492751190345
 20
-1.970533319795493
 30
0.0
 10
26.78660586016042
 20
-1.979631549093654
 30
0.0
  0
ARC
  5
272D
330
1F
100
AcDbEntity
  8
0
100
AcDbCircle
 10
30.8606409673713
 20
21.69140899747009
 30
0.0
 40
4.862592000000001
100
AcDbArc
 50
275.0659573962618
 51
283.0940390000086
  0
ARC
  5
272E
330
1F
100
AcDbEntity
  8
0
100
AcDbCircle
 10
30.81455073444442
 20
21.71285519932309
 30
0.0
 40
4.894086068929443
100
AcDbArc
 50
283.562719081883
 51
323.6899395560461
  0
ARC
  5
272F
330
1F
100
AcDbEntity
  8
0
100
AcDbCircle
 10
30.81455073444442
 20
21.71285519932309
 30
0.0
 40
4.894086068929443
100
AcDbArc
 50
336.3625871832916
 51
338.7352221720988
  0
ARC
  5
2730
330
1F
100
AcDbEntity
  8
0
100
AcDbCircle
 10
30.81455073444442
 20
21.71285519932309
 30
0.0
 40
4.894086068929443
100
AcDbArc
 50
347.0915765783973
 51
26.53132195294556
  0
ARC
  5
2731
330
1F
100
AcDbEntity
  8
0
100
AcDbCircle
 10
44.07100660777098
 20
30.26911114910882
 30
0.0
 40
10.92672307352466
100
AcDbArc
 50
200.4565257426873
 51
215.6608684421821
  0
ARC
  5
2732
330
1F
100
AcDbEntity
  8
0
100
AcDbCircle
 10
30.8606409673713
 20
21.69140899747009
 30
0.0
 40
4.862592000000001
100
AcDbArc
 50
153.0000000000021
 51
192.7641652739228
  0
ARC
  5
2733
330
1F
100
AcDbEntity
  8
0
100
AcDbCircle
 10
30.8606409673713
 20
21.69140899747009
 30
0.0
 40
4.862592000000001
100
AcDbArc
 50
201.1740420139519
 51
202.9422890000095
  0
ARC
  5
2734
330
1F
100
AcDbEntity
  8
0
100
AcDbCircle
 10
30.8606409673713
 20
21.69140899747009
 30
0.0
 40
4.862592000000132
100
AcDbArc
 50
216.5804345118642
 51
264.9340426038243
  0
ARC
  5
2735
330
1F
100
AcDbEntity
  8
0
100
AcDbCircle
 10
17.6502748746326
 20
30.26911125259704
 30
0.0
 40
10.92672353509811
100
AcDbArc
 50
324.3391315817065
 51
339.5434745460534
  0
ENDSEC
  0
SECTION
  2
OBJECTS
  0
DICTIONARY
  5
C
330
0
100
AcDbDictionary
281
     1
  3
ACAD_COLOR
350
1DDA
  3
ACAD_DETAILVIEWSTYLE
350
1DD7
  3
ACAD_DGNDEFINITIONS
350
1DDD
  3
ACAD_DWFDEFINITIONS
350
1DDC
  3
ACAD_GROUP
350
D
  3
ACAD_LAYOUT
350
1A
  3
ACAD_MATERIAL
350
1DBF
  3
ACAD_MLEADERSTYLE
350
1DCE
  3
ACAD_MLINESTYLE
350
17
  3
ACAD_PDFDEFINITIONS
350
1DDB
  3
ACAD_PLOTSETTINGS
350
19
  3
ACAD_PLOTSTYLENAME
350
E
  3
ACAD_SCALELIST
350
1DAD
  3
ACAD_SECTIONVIEWSTYLE
350
1DD8
  3
ACAD_TABLESTYLE
350
1DAC
  3
ACAD_VISUALSTYLE
350
2A
  3
ACDB_RECOMPOSE_DATA
350
2738
  3
AcDbVariableDictionary
350
1DD2
  0
SUN
  5
2519
330
29
100
AcDbSun
 90
        1
290
     0
 63
     7
421
 16777215
 40
1.0
291
     1
 91
  2455826
 92
 54000000
292
     0
 70
     2
 71
   256
280
     1
  0
DICTIONARY
  5
2636
330
2
100
AcDbDictionary
280
     1
281
     1
  3
ACAD_LAYERSTATES
360
2637
  0
DICTIONARY
  5
1FD5
330
1FD4
100
AcDbDictionary
280
     1
281
     1
  3
ADSK_XREC_LAYER_RECONCILED
360
1FD6
  0
DICTIONARY
  5
1DDA
102
{ACAD_REACTORS
330
C
102
}
330
C
100
AcDbDictionary
281
     1
  0
DICTIONARY
  5
1DD7
102
{ACAD_REACTORS
330
C
102
}
330
C
100
AcDbDictionary
281
     1
  0
DICTIONARY
  5
1DDD
102
{ACAD_REACTORS
330
C
102
}
330
C
100
AcDbDictionary
281
     1
  0
DICTIONARY
  5
1DDC
102
{ACAD_REACTORS
330
C
102
}
330
C
100
AcDbDictionary
281
     1
  0
DICTIONARY
  5
D
102
{ACAD_REACTORS
330
C
102
}
330
C
100
AcDbDictionary
281
     1
  0
DICTIONARY
  5
1A
102
{ACAD_REACTORS
330
C
102
}
330
C
100
AcDbDictionary
281
     1
  3
Layout1
350
1E
  3
Layout2
350
26
  3
Model
350
22
  0
DICTIONARY
  5
1DBF
102
{ACAD_REACTORS
330
C
102
}
330
C
100
AcDbDictionary
281
     1
  3
ByBlock
350
1DC1
  3
ByLayer
350
1DC0
  3
Global
350
1DC2
  0
DICTIONARY
  5
1DCE
102
{ACAD_REACTORS
330
C
102
}
330
C
100
AcDbDictionary
281
     1
  3
Standard
350
1DCF
  0
DICTIONARY
  5
17
102
{ACAD_REACTORS
330
C
102
}
330
C
100
AcDbDictionary
281
     1
  3
Standard
350
18
  0
DICTIONARY
  5
1DDB
102
{ACAD_REACTORS
330
C
102
}
330
C
100
AcDbDictionary
281
     1
  0
DICTIONARY
  5
19
102
{ACAD_REACTORS
330
C
102
}
330
C
100
AcDbDictionary
281
     1
  0
ACDBDICTIONARYWDFLT
  5
E
102
{ACAD_REACTORS
330
C
102
}
330
C
100
AcDbDictionary
281
     1
  3
Normal
350
F
100
AcDbDictionaryWithDefault
340
F
  0
DICTIONARY
  5
1DAD
102
{ACAD_REACTORS
330
C
102
}
330
C
100
AcDbDictionary
281
     1
  3
A0
350
1DAE
  3
B7
350
1DAF
  3
B8
350
1DB0
  3
B9
350
1DB1
  3
C0
350
1DB2
  3
C1
350
1DB3
  3
C2
350
1DB4
  3
C3
350
1DB5
  3
C4
350
1DB6
  3
C5
350
1DB7
  3
C6
350
1DB8
  3
C7
350
1DB9
  3
C8
350
1DBA
  3
C9
350
1DBB
  3
D0
350
1DBC
  3
D1
350
1DBD
  3
D2
350
1DBE
  0
DICTIONARY
  5
1DD8
102
{ACAD_REACTORS
330
C
102
}
330
C
100
AcDbDictionary
281
     1
  0
DICTIONARY
  5
1DAC
102
{ACAD_REACTORS
330
C
102
}
330
C
100
AcDbDictionary
281
     1
  3
Standard
350
1DCD
  0
DICTIONARY
  5
2A
102
{ACAD_REACTORS
330
C
102
}
330
C
100
AcDbDictionary
281
     1
  3
2dWireframe
350
2F
  3
3D Hidden
350
31
  3
3dWireframe
350
30
  3
Basic
350
32
  3
Brighten
350
36
  3
ColorChange
350
3A
  3
Conceptual
350
34
  3
Dim
350
35
  3
EdgeColorOff
350
1DC7
  3
Facepattern
350
39
  3
Flat
350
2B
  3
FlatWithEdges
350
2C
  3
Gouraud
350
2D
  3
GouraudWithEdges
350
2E
  3
Hidden
350
1DC4
  3
JitterOff
350
1DC5
  3
Linepattern
350
38
  3
OverhangOff
350
1DC6
  3
Realistic
350
33
  3
Shaded
350
1DCC
  3
Shaded with edges
350
1DCB
  3
Shades of Gray
350
1DC8
  3
Sketchy
350
1DC9
  3
Thicken
350
37
  3
Wireframe
350
1DC3
  3
X-Ray
350
1DCA
  0
XRECORD
  5
2738
102
{ACAD_REACTORS
330
C
102
}
330
C
100
AcDbXrecord
280
     1
 90
        1
330
1DCD
  0
DICTIONARY
  5
1DD2
102
{ACAD_REACTORS
330
C
102
}
330
C
100
AcDbDictionary
281
     1
  3
CANNOSCALE
350
1DD3
  3
CMLEADERSTYLE
350
1DD5
  3
CTABLESTYLE
350
1DD4
  3
MSLTSCALE
350
1DD6
  0
DICTIONARY
  5
2637
102
{ACAD_REACTORS
330
2636
102
}
330
2636
100
AcDbDictionary
281
     1
  0
XRECORD
  5
1FD6
102
{ACAD_REACTORS
330
1FD5
102
}
330
1FD5
100
AcDbXrecord
280
     1
290
     1
  0
LAYOUT
  5
1E
102
{ACAD_REACTORS
330
1A
102
}
330
1A
100
AcDbPlotSettings
  1

  2
none_device
  4

  6

 40
0.0
 41
0.0
 42
0.0
 43
0.0
 44
0.0
 45
0.0
 46
0.0
 47
0.0
 48
0.0
 49
0.0
140
0.0
141
0.0
142
1.0
143
1.0
 70
   688
 72
     0
 73
     0
 74
     5
  7

 75
    16
 76
     0
 77
     2
 78
   300
147
1.0
148
0.0
149
0.0
100
AcDbLayout
  1
Layout1
 70
     1
 71
     1
 10
0.0
 20
0.0
 11
12.0
 21
9.0
 12
0.0
 22
0.0
 32
0.0
 14
15.05404876560741
 24
-2.292857692191027
 34
0.0
 15
173.2462213479518
 25
115.1456144056082
 35
0.0
146
0.0
 13
0.0
 23
0.0
 33
0.0
 16
1.0
 26
0.0
 36
0.0
 17
0.0
 27
1.0
 37
0.0
 76
     0
330
1B
  0
LAYOUT
  5
26
102
{ACAD_REACTORS
330
1A
102
}
330
1A
100
AcDbPlotSettings
  1

  2
none_device
  4

  6

 40
0.0
 41
0.0
 42
0.0
 43
0.0
 44
0.0
 45
0.0
 46
0.0
 47
0.0
 48
0.0
 49
0.0
140
0.0
141
0.0
142
1.0
143
1.0
 70
   688
 72
     0
 73
     0
 74
     5
  7

 75
    16
 76
     0
 77
     2
 78
   300
147
1.0
148
0.0
149
0.0
100
AcDbLayout
  1
Layout2
 70
     1
 71
     2
 10
0.0
 20
0.0
 11
0.0
 21
0.0
 12
0.0
 22
0.0
 32
0.0
 14
0.0
 24
0.0
 34
0.0
 15
0.0
 25
0.0
 35
0.0
146
0.0
 13
0.0
 23
0.0
 33
0.0
 16
1.0
 26
0.0
 36
0.0
 17
0.0
 27
1.0
 37
0.0
 76
     0
330
23
  0
LAYOUT
  5
22
102
{ACAD_REACTORS
330
1A
102
}
330
1A
100
AcDbPlotSettings
  1

  2
RICOH RPCS V4 MP C5504 JPN
  4
A4
  6

 40
5.1
 41
5.1
 42
5.1
 43
5.1
 44
210.0
 45
297.0
 46
0.0
 47
0.0
 48
-440.7854088649522
 49
-162.5822084833922
140
-235.6518490647071
141
-7.906788679989035
142
1.0
143
19.66344175678899
 70
  1712
 72
     0
 73
     1
 74
     4
  7

 75
     0
 76
     0
 77
     2
 78
   300
147
0.0508557968827985
148
11195.94938516978
149
4129.588095478162
100
AcDbLayout
  1
Model
 70
     1
 71
     0
 10
0.0
 20
0.0
 11
12.0
 21
9.0
 12
0.0
 22
0.0
 32
0.0
 14
-0.1510155761913339
 24
14.17073358405079
 34
0.0
 15
173.2462213479518
 25
112.8552498051348
 35
0.0
146
0.0
 13
0.0
 23
0.0
 33
0.0
 16
1.0
 26
0.0
 36
0.0
 17
0.0
 27
1.0
 37
0.0
 76
     0
330
1F
331
29
1001
ACAD_PSEXT
1000
RICOH RPCS V4 MP C5504 JPN
1000
RICOH RPCS V4 MP C5504 JPN
1000
192.168.200.100
1000

1070
     0
  0
MATERIAL
  5
1DC1
102
{ACAD_REACTORS
330
1DBF
102
}
330
1DBF
100
AcDbMaterial
  1
ByBlock
 72
     1
 94
      127
  0
MATERIAL
  5
1DC0
102
{ACAD_REACTORS
330
1DBF
102
}
330
1DBF
100
AcDbMaterial
  1
ByLayer
 72
     1
 94
      127
  0
MATERIAL
  5
1DC2
102
{ACAD_REACTORS
330
1DBF
102
}
330
1DBF
100
AcDbMaterial
  1
Global
 72
     1
 94
      127
  0
MLEADERSTYLE
  5
1DCF
102
{ACAD_REACTORS
330
1DCE
102
}
330
1DCE
100
AcDbMLeaderStyle
179
     2
170
     2
171
     1
172
     0
 90
        2
 40
0.0
 41
0.0
173
     1
 91
-1056964608
340
15
 92
       -2
290
     1
 42
0.09
291
     1
 43
0.36
  3
Standard
341
0
 44
0.18
300

342
11
174
     1
178
     6
175
     1
176
     0
 93
-1056964608
 45
0.18
292
     0
297
     0
 46
0.18
343
0
 94
-1056964608
 47
1.0
 49
1.0
140
1.0
293
     1
141
0.0
294
     1
177
     0
142
1.0
295
     0
296
     0
143
0.125
271
     0
272
     9
273
     9
298
     0
  0
MLINESTYLE
  5
18
102
{ACAD_REACTORS
330
17
102
}
330
17
100
AcDbMlineStyle
  2
Standard
 70
     0
  3

 62
   256
 51
90.0
 52
90.0
 71
     2
 49
0.5
 62
   256
  6
BYLAYER
 49
-0.5
 62
   256
  6
BYLAYER
  0
ACDBPLACEHOLDER
  5
F
102
{ACAD_REACTORS
330
E
102
}
330
E
  0
SCALE
  5
1DAE
102
{ACAD_REACTORS
330
1DAD
102
}
330
1DAD
100
AcDbScale
 70
     0
300
1:1
140
1.0
141
1.0
290
     1
  0
SCALE
  5
1DAF
102
{ACAD_REACTORS
330
1DAD
102
}
330
1DAD
100
AcDbScale
 70
     0
300
1/128" = 1'-0"
140
0.0078125
141
12.0
290
     0
  0
SCALE
  5
1DB0
102
{ACAD_REACTORS
330
1DAD
102
}
330
1DAD
100
AcDbScale
 70
     0
300
1/64" = 1'-0"
140
0.015625
141
12.0
290
     0
  0
SCALE
  5
1DB1
102
{ACAD_REACTORS
330
1DAD
102
}
330
1DAD
100
AcDbScale
 70
     0
300
1/32" = 1'-0"
140
0.03125
141
12.0
290
     0
  0
SCALE
  5
1DB2
102
{ACAD_REACTORS
330
1DAD
102
}
330
1DAD
100
AcDbScale
 70
     0
300
1/16" = 1'-0"
140
0.0625
141
12.0
290
     0
  0
SCALE
  5
1DB3
102
{ACAD_REACTORS
330
1DAD
102
}
330
1DAD
100
AcDbScale
 70
     0
300
3/32" = 1'-0"
140
0.09375
141
12.0
290
     0
  0
SCALE
  5
1DB4
102
{ACAD_REACTORS
330
1DAD
102
}
330
1DAD
100
AcDbScale
 70
     0
300
1/8" = 1'-0"
140
0.125
141
12.0
290
     0
  0
SCALE
  5
1DB5
102
{ACAD_REACTORS
330
1DAD
102
}
330
1DAD
100
AcDbScale
 70
     0
300
3/16" = 1'-0"
140
0.1875
141
12.0
290
     0
  0
SCALE
  5
1DB6
102
{ACAD_REACTORS
330
1DAD
102
}
330
1DAD
100
AcDbScale
 70
     0
300
1/4" = 1'-0"
140
0.25
141
12.0
290
     0
  0
SCALE
  5
1DB7
102
{ACAD_REACTORS
330
1DAD
102
}
330
1DAD
100
AcDbScale
 70
     0
300
3/8" = 1'-0"
140
0.375
141
12.0
290
     0
  0
SCALE
  5
1DB8
102
{ACAD_REACTORS
330
1DAD
102
}
330
1DAD
100
AcDbScale
 70
     0
300
1/2" = 1'-0"
140
0.5
141
12.0
290
     0
  0
SCALE
  5
1DB9
102
{ACAD_REACTORS
330
1DAD
102
}
330
1DAD
100
AcDbScale
 70
     0
300
3/4" = 1'-0"
140
0.75
141
12.0
290
     0
  0
SCALE
  5
1DBA
102
{ACAD_REACTORS
330
1DAD
102
}
330
1DAD
100
AcDbScale
 70
     0
300
1" = 1'-0"
140
1.0
141
12.0
290
     0
  0
SCALE
  5
1DBB
102
{ACAD_REACTORS
330
1DAD
102
}
330
1DAD
100
AcDbScale
 70
     0
300
1-1/2" = 1'-0"
140
1.5
141
12.0
290
     0
  0
SCALE
  5
1DBC
102
{ACAD_REACTORS
330
1DAD
102
}
330
1DAD
100
AcDbScale
 70
     0
300
3" = 1'-0"
140
3.0
141
12.0
290
     0
  0
SCALE
  5
1DBD
102
{ACAD_REACTORS
330
1DAD
102
}
330
1DAD
100
AcDbScale
 70
     0
300
6" = 1'-0"
140
6.0
141
12.0
290
     0
  0
SCALE
  5
1DBE
102
{ACAD_REACTORS
330
1DAD
102
}
330
1DAD
100
AcDbScale
 70
     0
300
1'-0" = 1'-0"
140
12.0
141
12.0
290
     0
  0
TABLESTYLE
  5
1DCD
102
{ACAD_REACTORS
330
1DAC
102
}
102
{ACAD_XDICTIONARY
360
2736
102
}
330
1DAC
100
AcDbTableStyle
  3
Standard
 70
     0
 71
     0
 40
0.06
 41
0.06
280
     0
281
     0
  7
Standard
140
0.18
170
     2
 62
     0
 63
   257
283
     0
 90
      512
 91
        0
  1

274
    -2
284
     1
 64
     0
275
    -2
285
     1
 65
     0
276
    -2
286
     1
 66
     0
277
    -2
287
     1
 67
     0
278
    -2
288
     1
 68
     0
279
    -2
289
     1
 69
     0
  7
Standard
140
0.25
170
     5
 62
     0
 63
   257
283
     0
 90
      512
 91
        0
  1

274
    -2
284
     1
 64
     0
275
    -2
285
     1
 65
     0
276
    -2
286
     1
 66
     0
277
    -2
287
     1
 67
     0
278
    -2
288
     1
 68
     0
279
    -2
289
     1
 69
     0
  7
Standard
140
0.18
170
     5
 62
     0
 63
   257
283
     0
 90
      512
 91
        0
  1

274
    -2
284
     1
 64
     0
275
    -2
285
     1
 65
     0
276
    -2
286
     1
 66
     0
277
    -2
287
     1
 67
     0
278
    -2
288
     1
 68
     0
279
    -2
289
     1
 69
     0
  0
VISUALSTYLE
  5
2F
102
{ACAD_REACTORS
330
2A
102
}
330
2A
100
AcDbVisualStyle
  2
2dWireframe
 70
     4
177
     3
291
     0
 70
    58
 90
        0
176
     1
 90
        2
176
     1
 90
        0
176
     1
 90
        0
176
     1
 40
-0.6
176
     1
 40
-30.0
176
     1
 62
     7
176
     1
 90
        1
176
     1
 90
        4
176
     1
 62
     7
176
     1
 62
   257
176
     1
 90
        1
176
     1
 90
        1
176
     1
 40
1.0
176
     1
 90
        0
176
     1
 62
   257
176
     1
 40
1.0
176
     1
 90
        1
176
     1
 90
        6
176
     1
 90
        2
176
     1
 62
     7
176
     1
 90
        5
176
     1
 90
        0
176
     1
 90
        0
176
     1
290
     0
176
     1
 90
        1
176
     1
 40
0.0
176
     1
 90
        0
176
     1
290
     1
176
     1
290
     1
176
     1
290
     0
176
     1
290
     0
176
     1
290
     0
176
     1
290
     0
176
     1
290
     0
176
     1
290
     0
176
     1
290
     0
176
     1
 90
       50
176
     1
 40
0.0
176
     1
 40
1.0
176
     1
 90
        0
176
     1
 62
    18
420
        0
176
     1
 90
       50
176
     1
 90
        3
176
     1
 62
     5
420
      255
176
     1
290
     0
176
     1
 90
       50
176
     1
 90
       50
176
     1
 90
       50
176
     1
290
     0
176
     1
 90
       50
176
     1
 62
   256
176
     0
 40
1.0
176
     0
 90
        2
176
     1
  1
strokes_ogs.tif
176
     1
290
     0
176
     1
 40
1.0
176
     1
 40
1.0
176
     1
  0
VISUALSTYLE
  5
31
102
{ACAD_REACTORS
330
2A
102
}
330
2A
100
AcDbVisualStyle
  2
3D Hidden
 70
     6
177
     3
291
     0
 70
    58
 90
        1
176
     1
 90
        2
176
     1
 90
        2
176
     1
 90
        0
176
     1
 40
-0.6
176
     1
 40
-30.0
176
     1
 62
     7
176
     1
 90
        2
176
     1
 90
        2
176
     1
 62
     7
176
     1
 62
   257
176
     1
 90
        2
176
     1
 90
        1
176
     1
 40
40.0
176
     1
 90
        0
176
     1
 62
   257
176
     1
 40
1.0
176
     1
 90
        1
176
     1
 90
        6
176
     1
 90
        2
176
     1
 62
     7
176
     1
 90
        3
176
     1
 90
        0
176
     1
 90
        0
176
     1
290
     0
176
     1
 90
        1
176
     1
 40
0.0
176
     1
 90
        0
176
     1
290
     0
176
     1
290
     1
176
     1
290
     1
176
     1
290
     0
176
     1
290
     0
176
     1
290
     0
176
     1
290
     0
176
     1
290
     0
176
     1
290
     0
176
     1
 90
       50
176
     1
 40
0.0
176
     1
 40
1.0
176
     1
 90
        0
176
     1
 62
    18
420
        0
176
     1
 90
       50
176
     1
 90
        3
176
     1
 62
     5
420
      255
176
     1
290
     0
176
     1
 90
       50
176
     1
 90
       50
176
     1
 90
       50
176
     1
290
     0
176
     1
 90
       50
176
     1
 62
   256
176
     0
 40
1.0
176
     0
 90
        2
176
     1
  1
strokes_ogs.tif
176
     1
290
     0
176
     1
 40
1.0
176
     1
 40
1.0
176
     1
  0
VISUALSTYLE
  5
30
102
{ACAD_REACTORS
330
2A
102
}
330
2A
100
AcDbVisualStyle
  2
3dWireframe
 70
     5
177
     3
291
     0
 70
    58
 90
        0
176
     1
 90
        2
176
     1
 90
        0
176
     1
 90
        0
176
     1
 40
-0.6
176
     1
 40
-30.0
176
     1
 62
     7
176
     1
 90
        1
176
     1
 90
        4
176
     1
 62
     7
176
     1
 62
   257
176
     1
 90
        1
176
     1
 90
        1
176
     1
 40
1.0
176
     1
 90
        0
176
     1
 62
   257
176
     1
 40
1.0
176
     1
 90
        1
176
     1
 90
        6
176
     1
 90
        2
176
     1
 62
     7
176
     1
 90
        5
176
     1
 90
        0
176
     1
 90
        0
176
     1
290
     0
176
     1
 90
        1
176
     1
 40
0.0
176
     1
 90
        0
176
     1
290
     0
176
     1
290
     1
176
     1
290
     1
176
     1
290
     0
176
     1
290
     0
176
     1
290
     0
176
     1
290
     0
176
     1
290
     0
176
     1
290
     0
176
     1
 90
       50
176
     1
 40
0.0
176
     1
 40
1.0
176
     1
 90
        0
176
     1
 62
    18
420
        0
176
     1
 90
       50
176
     1
 90
        3
176
     1
 62
     5
420
      255
176
     1
290
     0
176
     1
 90
       50
176
     1
 90
       50
176
     1
 90
       50
176
     1
290
     0
176
     1
 90
       50
176
     1
 62
   256
176
     0
 40
1.0
176
     0
 90
        2
176
     1
  1
strokes_ogs.tif
176
     1
290
     0
176
     1
 40
1.0
176
     1
 40
1.0
176
     1
  0
VISUALSTYLE
  5
32
102
{ACAD_REACTORS
330
2A
102
}
330
2A
100
AcDbVisualStyle
  2
Basic
 70
     7
177
     3
291
     1
 70
    58
 90
        1
176
     1
 90
        0
176
     1
 90
        1
176
     1
 90
        0
176
     1
 40
-0.6
176
     1
 40
-30.0
176
     1
 62
     7
176
     1
 90
        0
176
     1
 90
        4
176
     1
 62
     7
176
     1
 62
   257
176
     1
 90
        1
176
     1
 90
        1
176
     1
 40
1.0
176
     1
 90
        8
176
     1
 62
     7
176
     1
 40
1.0
176
     1
 90
        1
176
     1
 90
        6
176
     1
 90
        2
176
     1
 62
     7
176
     1
 90
        5
176
     1
 90
        0
176
     1
 90
        0
176
     1
290
     0
176
     1
 90
        1
176
     1
 40
0.0
176
     1
 90
        0
176
     1
290
     0
176
     1
290
     1
176
     1
290
     1
176
     1
290
     0
176
     1
290
     0
176
     1
290
     0
176
     1
290
     0
176
     1
290
     0
176
     1
290
     0
176
     1
 90
       50
176
     1
 40
0.0
176
     1
 40
1.0
176
     1
 90
        0
176
     1
 62
    18
420
        0
176
     1
 90
       50
176
     1
 90
        3
176
     1
 62
     5
420
      255
176
     1
290
     0
176
     1
 90
       50
176
     1
 90
       50
176
     1
 90
       50
176
     1
290
     0
176
     1
 90
       50
176
     1
 62
   256
176
     0
 40
1.0
176
     0
 90
        2
176
     1
  1
strokes_ogs.tif
176
     1
290
     0
176
     1
 40
1.0
176
     1
 40
1.0
176
     1
  0
VISUALSTYLE
  5
36
102
{ACAD_REACTORS
330
2A
102
}
330
2A
100
AcDbVisualStyle
  2
Brighten
 70
    12
177
     3
291
     1
 70
    58
 90
        2
176
     1
 90
        2
176
     1
 90
        0
176
     1
 90
        0
176
     1
 40
-0.6
176
     1
 40
-30.0
176
     1
 62
     7
176
     1
 90
        1
176
     1
 90
        4
176
     1
 62
     7
176
     1
 62
   257
176
     1
 90
        1
176
     1
 90
        1
176
     1
 40
1.0
176
     1
 90
        8
176
     1
 62
     7
176
     1
 40
1.0
176
     1
 90
        1
176
     1
 90
        6
176
     1
 90
        2
176
     1
 62
     7
176
     1
 90
        5
176
     1
 90
        0
176
     1
 90
        0
176
     1
290
     0
176
     1
 90
        1
176
     1
 40
50.0
176
     1
 90
        0
176
     1
290
     0
176
     1
290
     1
176
     1
290
     1
176
     1
290
     0
176
     1
290
     0
176
     1
290
     0
176
     1
290
     0
176
     1
290
     0
176
     1
290
     0
176
     1
 90
       50
176
     1
 40
0.0
176
     1
 40
1.0
176
     1
 90
        0
176
     1
 62
    18
420
        0
176
     1
 90
       50
176
     1
 90
        3
176
     1
 62
     5
420
      255
176
     1
290
     0
176
     1
 90
       50
176
     1
 90
       50
176
     1
 90
       50
176
     1
290
     0
176
     1
 90
       50
176
     1
 62
   256
176
     0
 40
1.0
176
     0
 90
        2
176
     1
  1
strokes_ogs.tif
176
     1
290
     0
176
     1
 40
1.0
176
     1
 40
1.0
176
     1
  0
VISUALSTYLE
  5
3A
102
{ACAD_REACTORS
330
2A
102
}
330
2A
100
AcDbVisualStyle
  2
ColorChange
 70
    16
177
     3
291
     1
 70
    58
 90
        2
176
     1
 90
        2
176
     1
 90
        3
176
     1
 90
        0
176
     1
 40
-0.6
176
     1
 40
-30.0
176
     1
 62
     8
176
     1
 90
        1
176
     1
 90
        4
176
     1
 62
     7
176
     1
 62
   257
176
     1
 90
        1
176
     1
 90
        1
176
     1
 40
1.0
176
     1
 90
        8
176
     1
 62
     8
176
     1
 40
1.0
176
     1
 90
        1
176
     1
 90
        6
176
     1
 90
        2
176
     1
 62
     7
176
     1
 90
        5
176
     1
 90
        0
176
     1
 90
        0
176
     1
290
     0
176
     1
 90
        1
176
     1
 40
0.0
176
     1
 90
        0
176
     1
290
     0
176
     1
290
     1
176
     1
290
     1
176
     1
290
     0
176
     1
290
     0
176
     1
290
     0
176
     1
290
     0
176
     1
290
     0
176
     1
290
     0
176
     1
 90
       50
176
     1
 40
0.0
176
     1
 40
1.0
176
     1
 90
        0
176
     1
 62
    18
420
        0
176
     1
 90
       50
176
     1
 90
        3
176
     1
 62
     5
420
      255
176
     1
290
     0
176
     1
 90
       50
176
     1
 90
       50
176
     1
 90
       50
176
     1
290
     0
176
     1
 90
       50
176
     1
 62
   256
176
     0
 40
1.0
176
     0
 90
        2
176
     1
  1
strokes_ogs.tif
176
     1
290
     0
176
     1
 40
1.0
176
     1
 40
1.0
176
     1
  0
VISUALSTYLE
  5
34
102
{ACAD_REACTORS
330
2A
102
}
330
2A
100
AcDbVisualStyle
  2
Conceptual
 70
     9
177
     3
291
     0
 70
    58
 90
        3
176
     1
 90
        2
176
     1
 90
        0
176
     1
 90
        0
176
     1
 40
-0.6
176
     1
 40
-30.0
176
     1
 62
     7
176
     1
 90
        2
176
     1
 90
        2
176
     1
 62
     7
176
     1
 62
   257
176
     1
 90
        1
176
     1
 90
        1
176
     1
 40
40.0
176
     1
 90
        8
176
     1
 62
     7
176
     1
 40
1.0
176
     1
 90
        1
176
     1
 90
        6
176
     1
 90
        2
176
     1
 62
     7
176
     1
 90
        3
176
     1
 90
        0
176
     1
 90
        0
176
     1
290
     0
176
     1
 90
        1
176
     1
 40
0.0
176
     1
 90
        0
176
     1
290
     0
176
     1
290
     1
176
     1
290
     1
176
     1
290
     0
176
     1
290
     0
176
     1
290
     0
176
     1
290
     0
176
     1
290
     0
176
     1
290
     0
176
     1
 90
       50
176
     1
 40
0.0
176
     1
 40
1.0
176
     1
 90
        0
176
     1
 62
    18
420
        0
176
     1
 90
       50
176
     1
 90
        3
176
     1
 62
     5
420
      255
176
     1
290
     0
176
     1
 90
       50
176
     1
 90
       50
176
     1
 90
       50
176
     1
290
     0
176
     1
 90
       50
176
     1
 62
   256
176
     0
 40
1.0
176
     0
 90
        2
176
     1
  1
strokes_ogs.tif
176
     1
290
     0
176
     1
 40
1.0
176
     1
 40
1.0
176
     1
  0
VISUALSTYLE
  5
35
102
{ACAD_REACTORS
330
2A
102
}
330
2A
100
AcDbVisualStyle
  2
Dim
 70
    11
177
     3
291
     1
 70
    58
 90
        2
176
     1
 90
        2
176
     1
 90
        0
176
     1
 90
        0
176
     1
 40
-0.6
176
     1
 40
-30.0
176
     1
 62
     7
176
     1
 90
        1
176
     1
 90
        4
176
     1
 62
     7
176
     1
 62
   257
176
     1
 90
        1
176
     1
 90
        1
176
     1
 40
1.0
176
     1
 90
        8
176
     1
 62
     7
176
     1
 40
1.0
176
     1
 90
        1
176
     1
 90
        6
176
     1
 90
        2
176
     1
 62
     7
176
     1
 90
        5
176
     1
 90
        0
176
     1
 90
        0
176
     1
290
     0
176
     1
 90
        1
176
     1
 40
-50.0
176
     1
 90
        0
176
     1
290
     0
176
     1
290
     1
176
     1
290
     1
176
     1
290
     0
176
     1
290
     0
176
     1
290
     0
176
     1
290
     0
176
     1
290
     0
176
     1
290
     0
176
     1
 90
       50
176
     1
 40
0.0
176
     1
 40
1.0
176
     1
 90
        0
176
     1
 62
    18
420
        0
176
     1
 90
       50
176
     1
 90
        3
176
     1
 62
     5
420
      255
176
     1
290
     0
176
     1
 90
       50
176
     1
 90
       50
176
     1
 90
       50
176
     1
290
     0
176
     1
 90
       50
176
     1
 62
   256
176
     0
 40
1.0
176
     0
 90
        2
176
     1
  1
strokes_ogs.tif
176
     1
290
     0
176
     1
 40
1.0
176
     1
 40
1.0
176
     1
  0
VISUALSTYLE
  5
1DC7
102
{ACAD_REACTORS
330
2A
102
}
330
2A
100
AcDbVisualStyle
  2
EdgeColorOff
 70
    22
177
     3
291
     1
 70
    58
 90
        2
176
     0
 90
        2
176
     0
 90
        0
176
     0
 90
        0
176
     0
 40
0.6
176
     0
 40
30.0
176
     0
 62
     7
420
 16777215
176
     0
 90
        1
176
     0
 90
        4
176
     0
 62
     7
176
     0
 62
   257
176
     0
 90
        1
176
     0
 90
        1
176
     0
 40
1.0
176
     0
 90
        8
176
     0
 62
     7
176
     0
 40
1.0
176
     0
 90
        1
176
     0
 90
        6
176
     0
 90
        2
176
     0
 62
     7
176
     0
 90
        5
176
     0
 90
        0
176
     0
 90
        0
176
     0
290
     0
176
     0
 90
        1
176
     0
 40
0.0
176
     0
 90
        0
176
     0
290
     0
176
     1
290
     1
176
     1
290
     1
176
     1
290
     0
176
     1
290
     0
176
     1
290
     0
176
     1
290
     0
176
     1
290
     0
176
     1
290
     0
176
     1
 90
       50
176
     1
 40
0.0
176
     1
 40
1.0
176
     1
 90
        0
176
     1
 62
    18
420
        0
176
     1
 90
       50
176
     1
 90
        3
176
     1
 62
     5
420
      255
176
     1
290
     0
176
     1
 90
       50
176
     1
 90
       50
176
     1
 90
       50
176
     1
290
     0
176
     1
 90
       50
176
     1
 62
   256
176
     0
 40
1.0
176
     0
 90
        2
176
     1
  1
strokes_ogs.tif
176
     1
290
     0
176
     1
 40
1.0
176
     1
 40
1.0
176
     1
  0
VISUALSTYLE
  5
39
102
{ACAD_REACTORS
330
2A
102
}
330
2A
100
AcDbVisualStyle
  2
Facepattern
 70
    15
177
     3
291
     1
 70
    58
 90
        2
176
     1
 90
        2
176
     1
 90
        0
176
     1
 90
        0
176
     1
 40
-0.6
176
     1
 40
-30.0
176
     1
 62
     7
176
     1
 90
        1
176
     1
 90
        4
176
     1
 62
     7
176
     1
 62
   257
176
     1
 90
        1
176
     1
 90
        1
176
     1
 40
1.0
176
     1
 90
        8
176
     1
 62
     7
176
     1
 40
1.0
176
     1
 90
        1
176
     1
 90
        6
176
     1
 90
        2
176
     1
 62
     7
176
     1
 90
        5
176
     1
 90
        0
176
     1
 90
        0
176
     1
290
     0
176
     1
 90
        1
176
     1
 40
0.0
176
     1
 90
        0
176
     1
290
     0
176
     1
290
     1
176
     1
290
     1
176
     1
290
     0
176
     1
290
     0
176
     1
290
     0
176
     1
290
     0
176
     1
290
     0
176
     1
290
     0
176
     1
 90
       50
176
     1
 40
0.0
176
     1
 40
1.0
176
     1
 90
        0
176
     1
 62
    18
420
        0
176
     1
 90
       50
176
     1
 90
        3
176
     1
 62
     5
420
      255
176
     1
290
     0
176
     1
 90
       50
176
     1
 90
       50
176
     1
 90
       50
176
     1
290
     0
176
     1
 90
       50
176
     1
 62
   256
176
     0
 40
1.0
176
     0
 90
        2
176
     1
  1
strokes_ogs.tif
176
     1
290
     0
176
     1
 40
1.0
176
     1
 40
1.0
176
     1
  0
VISUALSTYLE
  5
2B
102
{ACAD_REACTORS
330
2A
102
}
330
2A
100
AcDbVisualStyle
  2
Flat
 70
     0
177
     3
291
     1
 70
    58
 90
        2
176
     1
 90
        1
176
     1
 90
        1
176
     1
 90
        2
176
     1
 40
-0.6
176
     1
 40
30.0
176
     1
 62
     7
176
     1
 90
        0
176
     1
 90
        4
176
     1
 62
     7
176
     1
 62
   257
176
     1
 90
        1
176
     1
 90
        1
176
     1
 40
1.0
176
     1
 90
        8
176
     1
 62
     7
176
     1
 40
1.0
176
     1
 90
        1
176
     1
 90
        6
176
     1
 90
        2
176
     1
 62
     7
176
     1
 90
        5
176
     1
 90
        0
176
     1
 90
        0
176
     1
290
     0
176
     1
 90
       13
176
     1
 40
0.0
176
     1
 90
        0
176
     1
290
     0
176
     1
290
     1
176
     1
290
     1
176
     1
290
     0
176
     1
290
     0
176
     1
290
     0
176
     1
290
     0
176
     1
290
     0
176
     1
290
     0
176
     1
 90
       50
176
     1
 40
0.0
176
     1
 40
1.0
176
     1
 90
        0
176
     1
 62
    18
420
        0
176
     1
 90
       50
176
     1
 90
        3
176
     1
 62
     5
420
      255
176
     1
290
     0
176
     1
 90
       50
176
     1
 90
       50
176
     1
 90
       50
176
     1
290
     0
176
     1
 90
       50
176
     1
 62
   256
176
     0
 40
1.0
176
     0
 90
        2
176
     1
  1
strokes_ogs.tif
176
     1
290
     0
176
     1
 40
1.0
176
     1
 40
1.0
176
     1
  0
VISUALSTYLE
  5
2C
102
{ACAD_REACTORS
330
2A
102
}
330
2A
100
AcDbVisualStyle
  2
FlatWithEdges
 70
     1
177
     3
291
     1
 70
    58
 90
        2
176
     1
 90
        1
176
     1
 90
        1
176
     1
 90
        2
176
     1
 40
-0.6
176
     1
 40
30.0
176
     1
 62
     7
176
     1
 90
        1
176
     1
 90
        4
176
     1
 62
     7
176
     1
 62
   257
176
     1
 90
        1
176
     1
 90
        1
176
     1
 40
1.0
176
     1
 90
        0
176
     1
 62
   257
176
     1
 40
1.0
176
     1
 90
        1
176
     1
 90
        6
176
     1
 90
        2
176
     1
 62
     7
176
     1
 90
        5
176
     1
 90
        0
176
     1
 90
        0
176
     1
290
     0
176
     1
 90
       13
176
     1
 40
0.0
176
     1
 90
        0
176
     1
290
     0
176
     1
290
     1
176
     1
290
     1
176
     1
290
     0
176
     1
290
     0
176
     1
290
     0
176
     1
290
     0
176
     1
290
     0
176
     1
290
     0
176
     1
 90
       50
176
     1
 40
0.0
176
     1
 40
1.0
176
     1
 90
        0
176
     1
 62
    18
420
        0
176
     1
 90
       50
176
     1
 90
        3
176
     1
 62
     5
420
      255
176
     1
290
     0
176
     1
 90
       50
176
     1
 90
       50
176
     1
 90
       50
176
     1
290
     0
176
     1
 90
       50
176
     1
 62
   256
176
     0
 40
1.0
176
     0
 90
        2
176
     1
  1
strokes_ogs.tif
176
     1
290
     0
176
     1
 40
1.0
176
     1
 40
1.0
176
     1
  0
VISUALSTYLE
  5
2D
102
{ACAD_REACTORS
330
2A
102
}
330
2A
100
AcDbVisualStyle
  2
Gouraud
 70
     2
177
     3
291
     1
 70
    58
 90
        2
176
     1
 90
        2
176
     1
 90
        1
176
     1
 90
        2
176
     1
 40
-0.6
176
     1
 40
30.0
176
     1
 62
     7
176
     1
 90
        0
176
     1
 90
        4
176
     1
 62
     7
176
     1
 62
   257
176
     1
 90
        1
176
     1
 90
        1
176
     1
 40
1.0
176
     1
 90
        0
176
     1
 62
     7
176
     1
 40
1.0
176
     1
 90
        1
176
     1
 90
        6
176
     1
 90
        2
176
     1
 62
     7
176
     1
 90
        5
176
     1
 90
        0
176
     1
 90
        0
176
     1
290
     0
176
     1
 90
       13
176
     1
 40
0.0
176
     1
 90
        0
176
     1
290
     0
176
     1
290
     1
176
     1
290
     1
176
     1
290
     0
176
     1
290
     0
176
     1
290
     0
176
     1
290
     0
176
     1
290
     0
176
     1
290
     0
176
     1
 90
       50
176
     1
 40
0.0
176
     1
 40
1.0
176
     1
 90
        0
176
     1
 62
    18
420
        0
176
     1
 90
       50
176
     1
 90
        3
176
     1
 62
     5
420
      255
176
     1
290
     0
176
     1
 90
       50
176
     1
 90
       50
176
     1
 90
       50
176
     1
290
     0
176
     1
 90
       50
176
     1
 62
   256
176
     0
 40
1.0
176
     0
 90
        2
176
     1
  1
strokes_ogs.tif
176
     1
290
     0
176
     1
 40
1.0
176
     1
 40
1.0
176
     1
  0
VISUALSTYLE
  5
2E
102
{ACAD_REACTORS
330
2A
102
}
330
2A
100
AcDbVisualStyle
  2
GouraudWithEdges
 70
     3
177
     3
291
     1
 70
    58
 90
        2
176
     1
 90
        2
176
     1
 90
        1
176
     1
 90
        2
176
     1
 40
-0.6
176
     1
 40
30.0
176
     1
 62
     7
176
     1
 90
        1
176
     1
 90
        4
176
     1
 62
     7
176
     1
 62
   257
176
     1
 90
        1
176
     1
 90
        1
176
     1
 40
1.0
176
     1
 90
        0
176
     1
 62
   257
176
     1
 40
1.0
176
     1
 90
        1
176
     1
 90
        6
176
     1
 90
        2
176
     1
 62
     7
176
     1
 90
        5
176
     1
 90
        0
176
     1
 90
        0
176
     1
290
     0
176
     1
 90
       13
176
     1
 40
0.0
176
     1
 90
        0
176
     1
290
     0
176
     1
290
     1
176
     1
290
     1
176
     1
290
     0
176
     1
290
     0
176
     1
290
     0
176
     1
290
     0
176
     1
290
     0
176
     1
290
     0
176
     1
 90
       50
176
     1
 40
0.0
176
     1
 40
1.0
176
     1
 90
        0
176
     1
 62
    18
420
        0
176
     1
 90
       50
176
     1
 90
        3
176
     1
 62
     5
420
      255
176
     1
290
     0
176
     1
 90
       50
176
     1
 90
       50
176
     1
 90
       50
176
     1
290
     0
176
     1
 90
       50
176
     1
 62
   256
176
     0
 40
1.0
176
     0
 90
        2
176
     1
  1
strokes_ogs.tif
176
     1
290
     0
176
     1
 40
1.0
176
     1
 40
1.0
176
     1
  0
VISUALSTYLE
  5
1DC4
102
{ACAD_REACTORS
330
2A
102
}
330
2A
100
AcDbVisualStyle
  2
Hidden
 70
     6
177
     3
291
     0
 70
    58
 90
        1
176
     1
 90
        2
176
     1
 90
        2
176
     1
 90
        0
176
     1
 40
0.6
176
     1
 40
30.0
176
     1
 62
     7
420
 16777215
176
     1
 90
        2
176
     1
 90
        2
176
     1
 62
     7
176
     1
 62
   257
176
     1
 90
        2
176
     1
 90
        1
176
     1
 40
40.0
176
     1
 90
        0
176
     1
 62
   257
176
     1
 40
1.0
176
     1
 90
        1
176
     1
 90
        6
176
     1
 90
        2
176
     1
 62
     7
176
     1
 90
        3
176
     1
 90
        0
176
     1
 90
        0
176
     1
290
     0
176
     1
 90
        1
176
     1
 40
0.0
176
     1
 90
        0
176
     1
290
     0
176
     1
290
     1
176
     1
290
     1
176
     1
290
     0
176
     1
290
     0
176
     1
290
     0
176
     1
290
     0
176
     1
290
     0
176
     1
290
     0
176
     1
 90
       50
176
     1
 40
0.0
176
     1
 40
1.0
176
     1
 90
        0
176
     1
 62
    18
420
        0
176
     1
 90
       50
176
     1
 90
        3
176
     1
 62
     5
420
      255
176
     1
290
     0
176
     1
 90
       50
176
     1
 90
       50
176
     1
 90
       50
176
     1
290
     0
176
     1
 90
       50
176
     1
 62
   256
176
     0
 40
1.0
176
     0
 90
        2
176
     1
  1
strokes_ogs.tif
176
     1
290
     0
176
     1
 40
1.0
176
     1
 40
1.0
176
     1
  0
VISUALSTYLE
  5
1DC5
102
{ACAD_REACTORS
330
2A
102
}
330
2A
100
AcDbVisualStyle
  2
JitterOff
 70
    20
177
     3
291
     1
 70
    58
 90
        2
176
     0
 90
        2
176
     0
 90
        0
176
     0
 90
        0
176
     0
 40
0.6
176
     0
 40
30.0
176
     0
 62
     7
420
 16777215
176
     0
 90
        1
176
     0
 90
        4
176
     0
 62
     7
176
     0
 62
   257
176
     0
 90
        1
176
     0
 90
        1
176
     0
 40
1.0
176
     0
 90
       10
176
     0
 62
     7
176
     0
 40
1.0
176
     0
 90
        1
176
     0
 90
        6
176
     0
 90
        2
176
     0
 62
     7
176
     0
 90
        5
176
     0
 90
        0
176
     0
 90
        0
176
     0
290
     0
176
     0
 90
        1
176
     0
 40
0.0
176
     0
 90
        0
176
     0
290
     0
176
     1
290
     1
176
     1
290
     1
176
     1
290
     0
176
     1
290
     0
176
     1
290
     0
176
     1
290
     0
176
     1
290
     0
176
     1
290
     0
176
     1
 90
       50
176
     1
 40
0.0
176
     1
 40
1.0
176
     1
 90
        0
176
     1
 62
    18
420
        0
176
     1
 90
       50
176
     1
 90
        3
176
     1
 62
     5
420
      255
176
     1
290
     0
176
     1
 90
       50
176
     1
 90
       50
176
     1
 90
       50
176
     1
290
     0
176
     1
 90
       50
176
     1
 62
   256
176
     0
 40
1.0
176
     0
 90
        2
176
     1
  1
strokes_ogs.tif
176
     1
290
     0
176
     1
 40
1.0
176
     1
 40
1.0
176
     1
  0
VISUALSTYLE
  5
38
102
{ACAD_REACTORS
330
2A
102
}
330
2A
100
AcDbVisualStyle
  2
Linepattern
 70
    14
177
     3
291
     1
 70
    58
 90
        2
176
     1
 90
        2
176
     1
 90
        0
176
     1
 90
        0
176
     1
 40
-0.6
176
     1
 40
-30.0
176
     1
 62
     7
176
     1
 90
        1
176
     1
 90
        4
176
     1
 62
     7
176
     1
 62
   257
176
     1
 90
        7
176
     1
 90
        7
176
     1
 40
1.0
176
     1
 90
        8
176
     1
 62
     7
176
     1
 40
1.0
176
     1
 90
        1
176
     1
 90
        6
176
     1
 90
        2
176
     1
 62
     7
176
     1
 90
        5
176
     1
 90
        0
176
     1
 90
        0
176
     1
290
     0
176
     1
 90
        1
176
     1
 40
0.0
176
     1
 90
        0
176
     1
290
     0
176
     1
290
     1
176
     1
290
     1
176
     1
290
     0
176
     1
290
     0
176
     1
290
     0
176
     1
290
     0
176
     1
290
     0
176
     1
290
     0
176
     1
 90
       50
176
     1
 40
0.0
176
     1
 40
1.0
176
     1
 90
        0
176
     1
 62
    18
420
        0
176
     1
 90
       50
176
     1
 90
        3
176
     1
 62
     5
420
      255
176
     1
290
     0
176
     1
 90
       50
176
     1
 90
       50
176
     1
 90
       50
176
     1
290
     0
176
     1
 90
       50
176
     1
 62
   256
176
     0
 40
1.0
176
     0
 90
        2
176
     1
  1
strokes_ogs.tif
176
     1
290
     0
176
     1
 40
1.0
176
     1
 40
1.0
176
     1
  0
VISUALSTYLE
  5
1DC6
102
{ACAD_REACTORS
330
2A
102
}
330
2A
100
AcDbVisualStyle
  2
OverhangOff
 70
    21
177
     3
291
     1
 70
    58
 90
        2
176
     0
 90
        2
176
     0
 90
        0
176
     0
 90
        0
176
     0
 40
0.6
176
     0
 40
30.0
176
     0
 62
     7
420
 16777215
176
     0
 90
        1
176
     0
 90
        4
176
     0
 62
     7
176
     0
 62
   257
176
     0
 90
        1
176
     0
 90
        1
176
     0
 40
1.0
176
     0
 90
        9
176
     0
 62
     7
176
     0
 40
1.0
176
     0
 90
        1
176
     0
 90
        6
176
     0
 90
        2
176
     0
 62
     7
176
     0
 90
        5
176
     0
 90
        0
176
     0
 90
        0
176
     0
290
     0
176
     0
 90
        1
176
     0
 40
0.0
176
     0
 90
        0
176
     0
290
     0
176
     1
290
     1
176
     1
290
     1
176
     1
290
     0
176
     1
290
     0
176
     1
290
     0
176
     1
290
     0
176
     1
290
     0
176
     1
290
     0
176
     1
 90
       50
176
     1
 40
0.0
176
     1
 40
1.0
176
     1
 90
        0
176
     1
 62
    18
420
        0
176
     1
 90
       50
176
     1
 90
        3
176
     1
 62
     5
420
      255
176
     1
290
     0
176
     1
 90
       50
176
     1
 90
       50
176
     1
 90
       50
176
     1
290
     0
176
     1
 90
       50
176
     1
 62
   256
176
     0
 40
1.0
176
     0
 90
        2
176
     1
  1
strokes_ogs.tif
176
     1
290
     0
176
     1
 40
1.0
176
     1
 40
1.0
176
     1
  0
VISUALSTYLE
  5
33
102
{ACAD_REACTORS
330
2A
102
}
330
2A
100
AcDbVisualStyle
  2
Realistic
 70
     8
177
     3
291
     0
 70
    58
 90
        2
176
     1
 90
        2
176
     1
 90
        0
176
     1
 90
        0
176
     1
 40
-0.6
176
     1
 40
-30.0
176
     1
 62
     7
176
     1
 90
        1
176
     1
 90
        0
176
     1
 62
     7
176
     1
 62
   257
176
     1
 90
        1
176
     1
 90
        1
176
     1
 40
1.0
176
     1
 90
        8
176
     1
 62
     8
176
     1
 40
1.0
176
     1
 90
        1
176
     1
 90
        6
176
     1
 90
        2
176
     1
 62
     7
176
     1
 90
        5
176
     1
 90
        0
176
     1
 90
        0
176
     1
290
     0
176
     1
 90
       13
176
     1
 40
0.0
176
     1
 90
        0
176
     1
290
     0
176
     1
290
     1
176
     1
290
     1
176
     1
290
     0
176
     1
290
     0
176
     1
290
     0
176
     1
290
     0
176
     1
290
     0
176
     1
290
     0
176
     1
 90
       50
176
     1
 40
0.0
176
     1
 40
1.0
176
     1
 90
        0
176
     1
 62
    18
420
        0
176
     1
 90
       50
176
     1
 90
        3
176
     1
 62
     5
420
      255
176
     1
290
     0
176
     1
 90
       50
176
     1
 90
       50
176
     1
 90
       50
176
     1
290
     0
176
     1
 90
       50
176
     1
 62
   256
176
     0
 40
1.0
176
     0
 90
        2
176
     1
  1
strokes_ogs.tif
176
     1
290
     0
176
     1
 40
1.0
176
     1
 40
1.0
176
     1
  0
VISUALSTYLE
  5
1DCC
102
{ACAD_REACTORS
330
2A
102
}
330
2A
100
AcDbVisualStyle
  2
Shaded
 70
    27
177
     3
291
     0
 70
    58
 90
        2
176
     1
 90
        2
176
     1
 90
        1
176
     1
 90
        2
176
     1
 40
0.6
176
     1
 40
30.0
176
     1
 62
     7
420
 16777215
176
     1
 90
        0
176
     1
 90
        4
176
     1
 62
     7
176
     1
 62
   257
176
     1
 90
        1
176
     1
 90
        1
176
     1
 40
1.0
176
     1
 90
        8
176
     1
 62
   257
176
     1
 40
1.0
176
     1
 90
        1
176
     1
 90
        6
176
     1
 90
        2
176
     1
 62
   251
420
  5131854
176
     1
 90
        3
176
     1
 90
        0
176
     1
 90
        0
176
     1
290
     0
176
     1
 90
        5
176
     1
 40
0.0
176
     1
 90
        0
176
     1
290
     0
176
     1
290
     1
176
     1
290
     1
176
     1
290
     0
176
     1
290
     0
176
     1
290
     0
176
     1
290
     0
176
     1
290
     0
176
     1
290
     0
176
     1
 90
       50
176
     1
 40
0.0
176
     1
 40
1.0
176
     1
 90
        0
176
     1
 62
    18
420
        0
176
     1
 90
       50
176
     1
 90
        3
176
     1
 62
     5
420
      255
176
     1
290
     0
176
     1
 90
       50
176
     1
 90
       50
176
     1
 90
       50
176
     1
290
     0
176
     1
 90
       50
176
     1
 62
   256
176
     0
 40
1.0
176
     0
 90
        2
176
     1
  1
strokes_ogs.tif
176
     1
290
     0
176
     1
 40
1.0
176
     1
 40
1.0
176
     1
  0
VISUALSTYLE
  5
1DCB
102
{ACAD_REACTORS
330
2A
102
}
330
2A
100
AcDbVisualStyle
  2
Shaded with edges
 70
    26
177
     3
291
     0
 70
    58
 90
        2
176
     1
 90
        2
176
     1
 90
        1
176
     1
 90
        2
176
     1
 40
0.6
176
     1
 40
30.0
176
     1
 62
     7
420
 16777215
176
     1
 90
        1
176
     1
 90
       10
176
     1
 62
     7
176
     1
 62
   257
176
     1
 90
        2
176
     1
 90
        1
176
     1
 40
1.0
176
     1
 90
        8
176
     1
 62
   257
176
     1
 40
1.0
176
     1
 90
        1
176
     1
 90
        6
176
     1
 90
        2
176
     1
 62
     7
176
     1
 90
        3
176
     1
 90
        0
176
     1
 90
        0
176
     1
290
     0
176
     1
 90
        5
176
     1
 40
0.0
176
     1
 90
        0
176
     1
290
     0
176
     1
290
     1
176
     1
290
     1
176
     1
290
     0
176
     1
290
     0
176
     1
290
     0
176
     1
290
     0
176
     1
290
     0
176
     1
290
     0
176
     1
 90
       50
176
     1
 40
0.0
176
     1
 40
1.0
176
     1
 90
        0
176
     1
 62
    18
420
        0
176
     1
 90
       50
176
     1
 90
        3
176
     1
 62
     5
420
      255
176
     1
290
     0
176
     1
 90
       50
176
     1
 90
       50
176
     1
 90
       50
176
     1
290
     0
176
     1
 90
       50
176
     1
 62
   256
176
     0
 40
1.0
176
     0
 90
        2
176
     1
  1
strokes_ogs.tif
176
     1
290
     0
176
     1
 40
1.0
176
     1
 40
1.0
176
     1
  0
VISUALSTYLE
  5
1DC8
102
{ACAD_REACTORS
330
2A
102
}
330
2A
100
AcDbVisualStyle
  2
Shades of Gray
 70
    23
177
     3
291
     0
 70
    58
 90
        2
176
     1
 90
        2
176
     1
 90
        3
176
     1
 90
        0
176
     1
 40
0.6
176
     1
 40
30.0
176
     1
 62
     7
420
 16777215
176
     1
 90
        2
176
     1
 90
        2
176
     1
 62
     7
176
     1
 62
     7
176
     1
 90
        1
176
     1
 90
        1
176
     1
 40
40.0
176
     1
 90
        8
176
     1
 62
     7
176
     1
 40
1.0
176
     1
 90
        1
176
     1
 90
        6
176
     1
 90
        2
176
     1
 62
     7
176
     1
 90
        3
176
     1
 90
        0
176
     1
 90
        0
176
     1
290
     0
176
     1
 90
        1
176
     1
 40
0.0
176
     1
 90
        0
176
     1
290
     0
176
     1
290
     1
176
     1
290
     1
176
     1
290
     0
176
     1
290
     0
176
     1
290
     0
176
     1
290
     0
176
     1
290
     0
176
     1
290
     0
176
     1
 90
       50
176
     1
 40
0.0
176
     1
 40
1.0
176
     1
 90
        0
176
     1
 62
    18
420
        0
176
     1
 90
       50
176
     1
 90
        3
176
     1
 62
     5
420
      255
176
     1
290
     0
176
     1
 90
       50
176
     1
 90
       50
176
     1
 90
       50
176
     1
290
     0
176
     1
 90
       50
176
     1
 62
   256
176
     0
 40
1.0
176
     0
 90
        2
176
     1
  1
strokes_ogs.tif
176
     1
290
     0
176
     1
 40
1.0
176
     1
 40
1.0
176
     1
  0
VISUALSTYLE
  5
1DC9
102
{ACAD_REACTORS
330
2A
102
}
330
2A
100
AcDbVisualStyle
  2
Sketchy
 70
    24
177
     3
291
     0
 70
    58
 90
        1
176
     1
 90
        2
176
     1
 90
        2
176
     1
 90
        0
176
     1
 40
0.6
176
     1
 40
30.0
176
     1
 62
     7
420
 16777215
176
     1
 90
        2
176
     1
 90
        2
176
     1
 62
     7
176
     1
 62
     7
176
     1
 90
        1
176
     1
 90
        1
176
     1
 40
40.0
176
     1
 90
       11
176
     1
 62
     7
176
     1
 40
1.0
176
     1
 90
        1
176
     1
 90
        6
176
     1
 90
        2
176
     1
 62
     7
176
     1
 90
        6
176
     1
 90
        0
176
     1
 90
        0
176
     1
290
     0
176
     1
 90
        1
176
     1
 40
0.0
176
     1
 90
        0
176
     1
290
     0
176
     1
290
     1
176
     1
290
     1
176
     1
290
     0
176
     1
290
     0
176
     1
290
     0
176
     1
290
     0
176
     1
290
     0
176
     1
290
     0
176
     1
 90
       50
176
     1
 40
0.0
176
     1
 40
1.0
176
     1
 90
        0
176
     1
 62
    18
420
        0
176
     1
 90
       50
176
     1
 90
        3
176
     1
 62
     5
420
      255
176
     1
290
     0
176
     1
 90
       50
176
     1
 90
       50
176
     1
 90
       50
176
     1
290
     0
176
     1
 90
       50
176
     1
 62
   256
176
     0
 40
1.0
176
     0
 90
        2
176
     1
  1
strokes_ogs.tif
176
     1
290
     0
176
     1
 40
1.0
176
     1
 40
1.0
176
     1
  0
VISUALSTYLE
  5
37
102
{ACAD_REACTORS
330
2A
102
}
330
2A
100
AcDbVisualStyle
  2
Thicken
 70
    13
177
     3
291
     1
 70
    58
 90
        2
176
     1
 90
        2
176
     1
 90
        0
176
     1
 90
        0
176
     1
 40
-0.6
176
     1
 40
-30.0
176
     1
 62
     7
176
     1
 90
        1
176
     1
 90
        4
176
     1
 62
     7
176
     1
 62
   257
176
     1
 90
        1
176
     1
 90
        1
176
     1
 40
1.0
176
     1
 90
       12
176
     1
 62
     7
176
     1
 40
1.0
176
     1
 90
        1
176
     1
 90
        6
176
     1
 90
        2
176
     1
 62
     7
176
     1
 90
        5
176
     1
 90
        0
176
     1
 90
        0
176
     1
290
     0
176
     1
 90
        1
176
     1
 40
0.0
176
     1
 90
        0
176
     1
290
     0
176
     1
290
     1
176
     1
290
     1
176
     1
290
     0
176
     1
290
     0
176
     1
290
     0
176
     1
290
     0
176
     1
290
     0
176
     1
290
     0
176
     1
 90
       50
176
     1
 40
0.0
176
     1
 40
1.0
176
     1
 90
        0
176
     1
 62
    18
420
        0
176
     1
 90
       50
176
     1
 90
        3
176
     1
 62
     5
420
      255
176
     1
290
     0
176
     1
 90
       50
176
     1
 90
       50
176
     1
 90
       50
176
     1
290
     0
176
     1
 90
       50
176
     1
 62
   256
176
     0
 40
1.0
176
     0
 90
        2
176
     1
  1
strokes_ogs.tif
176
     1
290
     0
176
     1
 40
1.0
176
     1
 40
1.0
176
     1
  0
VISUALSTYLE
  5
1DC3
102
{ACAD_REACTORS
330
2A
102
}
330
2A
100
AcDbVisualStyle
  2
Wireframe
 70
     5
177
     3
291
     0
 70
    58
 90
        0
176
     1
 90
        2
176
     1
 90
        0
176
     1
 90
        0
176
     1
 40
0.6
176
     1
 40
30.0
176
     1
 62
     7
420
 16777215
176
     1
 90
        1
176
     1
 90
        4
176
     1
 62
     7
176
     1
 62
   257
176
     1
 90
        1
176
     1
 90
        1
176
     1
 40
1.0
176
     1
 90
        0
176
     1
 62
   257
176
     1
 40
1.0
176
     1
 90
        1
176
     1
 90
        6
176
     1
 90
        2
176
     1
 62
     7
176
     1
 90
        5
176
     1
 90
        0
176
     1
 90
        0
176
     1
290
     0
176
     1
 90
        1
176
     1
 40
0.0
176
     1
 90
        0
176
     1
290
     0
176
     1
290
     1
176
     1
290
     1
176
     1
290
     0
176
     1
290
     0
176
     1
290
     0
176
     1
290
     0
176
     1
290
     0
176
     1
290
     0
176
     1
 90
       50
176
     1
 40
0.0
176
     1
 40
1.0
176
     1
 90
        0
176
     1
 62
    18
420
        0
176
     1
 90
       50
176
     1
 90
        3
176
     1
 62
     5
420
      255
176
     1
290
     0
176
     1
 90
       50
176
     1
 90
       50
176
     1
 90
       50
176
     1
290
     0
176
     1
 90
       50
176
     1
 62
   256
176
     0
 40
1.0
176
     0
 90
        2
176
     1
  1
strokes_ogs.tif
176
     1
290
     0
176
     1
 40
1.0
176
     1
 40
1.0
176
     1
  0
VISUALSTYLE
  5
1DCA
102
{ACAD_REACTORS
330
2A
102
}
330
2A
100
AcDbVisualStyle
  2
X-Ray
 70
    25
177
     3
291
     0
 70
    58
 90
        2
176
     1
 90
        2
176
     1
 90
        1
176
     1
 90
        1
176
     1
 40
0.5
176
     1
 40
30.0
176
     1
 62
     7
420
 16777215
176
     1
 90
        1
176
     1
 90
        0
176
     1
 62
     7
176
     1
 62
   257
176
     1
 90
        1
176
     1
 90
        1
176
     1
 40
1.0
176
     1
 90
        8
176
     1
 62
     7
176
     1
 40
1.0
176
     1
 90
        1
176
     1
 90
        6
176
     1
 90
        2
176
     1
 62
     7
176
     1
 90
        3
176
     1
 90
        0
176
     1
 90
        0
176
     1
290
     0
176
     1
 90
       13
176
     1
 40
0.0
176
     1
 90
        0
176
     1
290
     0
176
     1
290
     1
176
     1
290
     1
176
     1
290
     0
176
     1
290
     0
176
     1
290
     0
176
     1
290
     0
176
     1
290
     0
176
     1
290
     0
176
     1
 90
       50
176
     1
 40
0.0
176
     1
 40
1.0
176
     1
 90
        0
176
     1
 62
    18
420
        0
176
     1
 90
       50
176
     1
 90
        3
176
     1
 62
     5
420
      255
176
     1
290
     0
176
     1
 90
       50
176
     1
 90
       50
176
     1
 90
       50
176
     1
290
     0
176
     1
 90
       50
176
     1
 62
   256
176
     0
 40
1.0
176
     0
 90
        2
176
     1
  1
strokes_ogs.tif
176
     1
290
     0
176
     1
 40
1.0
176
     1
 40
1.0
176
     1
  0
DICTIONARYVAR
  5
1DD3
102
{ACAD_REACTORS
330
1DD2
102
}
330
1DD2
100
DictionaryVariables
280
     0
  1
1:1
  0
DICTIONARYVAR
  5
1DD5
102
{ACAD_REACTORS
330
1DD2
102
}
330
1DD2
100
DictionaryVariables
280
     0
  1
Standard
  0
DICTIONARYVAR
  5
1DD4
102
{ACAD_REACTORS
330
1DD2
102
}
330
1DD2
100
DictionaryVariables
280
     0
  1
Standard
  0
DICTIONARYVAR
  5
1DD6
102
{ACAD_REACTORS
330
1DD2
102
}
330
1DD2
100
DictionaryVariables
280
     0
  1
0
  0
DICTIONARY
  5
2736
330
1DCD
100
AcDbDictionary
280
     1
281
     1
  3
ACAD_ROUNDTRIP_2008_TABLESTYLE_CELLSTYLEMAP
360
2737
  0
CELLSTYLEMAP
  5
2737
102
{ACAD_REACTORS
330
2736
102
}
330
2736
100
AcDbCellStyleMap
 90
        3
300
CELLSTYLE
  1
TABLEFORMAT_BEGIN
 90
        5
170
     1
 91
        0
 92
    32768
 62
   257
 93
        1
300
CONTENTFORMAT
  1
CONTENTFORMAT_BEGIN
 90
        0
 91
        0
 92
      512
 93
        0
300

 40
0.0
140
1.0
 94
        5
 62
     0
340
11
144
0.25
309
CONTENTFORMAT_END
171
     1
301
MARGIN
  1
CELLMARGIN_BEGIN
 40
0.06
 40
0.06
 40
0.06
 40
0.06
 40
0.06
 40
0.06
309
CELLMARGIN_END
 94
        6
 95
        1
302
GRIDFORMAT
  1
GRIDFORMAT_BEGIN
 90
        0
 91
        1
 62
     0
 92
       -2
340
14
 93
        0
 40
0.045
309
GRIDFORMAT_END
 95
        2
302
GRIDFORMAT
  1
GRIDFORMAT_BEGIN
 90
        0
 91
        1
 62
     0
 92
       -2
340
14
 93
        0
 40
0.045
309
GRIDFORMAT_END
 95
        4
302
GRIDFORMAT
  1
GRIDFORMAT_BEGIN
 90
        0
 91
        1
 62
     0
 92
       -2
340
14
 93
        0
 40
0.045
309
GRIDFORMAT_END
 95
        8
302
GRIDFORMAT
  1
GRIDFORMAT_BEGIN
 90
        0
 91
        1
 62
     0
 92
       -2
340
14
 93
        0
 40
0.045
309
GRIDFORMAT_END
 95
       16
302
GRIDFORMAT
  1
GRIDFORMAT_BEGIN
 90
        0
 91
        1
 62
     0
 92
       -2
340
14
 93
        0
 40
0.045
309
GRIDFORMAT_END
 95
       32
302
GRIDFORMAT
  1
GRIDFORMAT_BEGIN
 90
        0
 91
        1
 62
     0
 92
       -2
340
14
 93
        0
 40
0.045
309
GRIDFORMAT_END
309
TABLEFORMAT_END
  1
CELLSTYLE_BEGIN
 90
        1
 91
        1
300
_TITLE
309
CELLSTYLE_END
300
CELLSTYLE
  1
TABLEFORMAT_BEGIN
 90
        5
170
     1
 91
        0
 92
        0
 62
   257
 93
        1
300
CONTENTFORMAT
  1
CONTENTFORMAT_BEGIN
 90
        0
 91
        0
 92
      512
 93
        0
300

 40
0.0
140
1.0
 94
        5
 62
     0
340
11
144
0.18
309
CONTENTFORMAT_END
171
     1
301
MARGIN
  1
CELLMARGIN_BEGIN
 40
0.06
 40
0.06
 40
0.06
 40
0.06
 40
0.06
 40
0.06
309
CELLMARGIN_END
 94
        6
 95
        1
302
GRIDFORMAT
  1
GRIDFORMAT_BEGIN
 90
        0
 91
        1
 62
     0
 92
       -2
340
14
 93
        0
 40
0.045
309
GRIDFORMAT_END
 95
        2
302
GRIDFORMAT
  1
GRIDFORMAT_BEGIN
 90
        0
 91
        1
 62
     0
 92
       -2
340
14
 93
        0
 40
0.045
309
GRIDFORMAT_END
 95
        4
302
GRIDFORMAT
  1
GRIDFORMAT_BEGIN
 90
        0
 91
        1
 62
     0
 92
       -2
340
14
 93
        0
 40
0.045
309
GRIDFORMAT_END
 95
        8
302
GRIDFORMAT
  1
GRIDFORMAT_BEGIN
 90
        0
 91
        1
 62
     0
 92
       -2
340
14
 93
        0
 40
0.045
309
GRIDFORMAT_END
 95
       16
302
GRIDFORMAT
  1
GRIDFORMAT_BEGIN
 90
        0
 91
        1
 62
     0
 92
       -2
340
14
 93
        0
 40
0.045
309
GRIDFORMAT_END
 95
       32
302
GRIDFORMAT
  1
GRIDFORMAT_BEGIN
 90
        0
 91
        1
 62
     0
 92
       -2
340
14
 93
        0
 40
0.045
309
GRIDFORMAT_END
309
TABLEFORMAT_END
  1
CELLSTYLE_BEGIN
 90
        2
 91
        1
300
_HEADER
309
CELLSTYLE_END
300
CELLSTYLE
  1
TABLEFORMAT_BEGIN
 90
        5
170
     1
 91
        0
 92
        0
 62
   257
 93
        1
300
CONTENTFORMAT
  1
CONTENTFORMAT_BEGIN
 90
        0
 91
        0
 92
      512
 93
        0
300

 40
0.0
140
1.0
 94
        2
 62
     0
340
11
144
0.18
309
CONTENTFORMAT_END
171
     1
301
MARGIN
  1
CELLMARGIN_BEGIN
 40
0.06
 40
0.06
 40
0.06
 40
0.06
 40
0.06
 40
0.06
309
CELLMARGIN_END
 94
        6
 95
        1
302
GRIDFORMAT
  1
GRIDFORMAT_BEGIN
 90
        0
 91
        1
 62
     0
 92
       -2
340
14
 93
        0
 40
0.045
309
GRIDFORMAT_END
 95
        2
302
GRIDFORMAT
  1
GRIDFORMAT_BEGIN
 90
        0
 91
        1
 62
     0
 92
       -2
340
14
 93
        0
 40
0.045
309
GRIDFORMAT_END
 95
        4
302
GRIDFORMAT
  1
GRIDFORMAT_BEGIN
 90
        0
 91
        1
 62
     0
 92
       -2
340
14
 93
        0
 40
0.045
309
GRIDFORMAT_END
 95
        8
302
GRIDFORMAT
  1
GRIDFORMAT_BEGIN
 90
        0
 91
        1
 62
     0
 92
       -2
340
14
 93
        0
 40
0.045
309
GRIDFORMAT_END
 95
       16
302
GRIDFORMAT
  1
GRIDFORMAT_BEGIN
 90
        0
 91
        1
 62
     0
 92
       -2
340
14
 93
        0
 40
0.045
309
GRIDFORMAT_END
 95
       32
302
GRIDFORMAT
  1
GRIDFORMAT_BEGIN
 90
        0
 91
        1
 62
     0
 92
       -2
340
14
 93
        0
 40
0.045
309
GRIDFORMAT_END
309
TABLEFORMAT_END
  1
CELLSTYLE_BEGIN
 90
        3
 91
        2
300
_DATA
309
CELLSTYLE_END
  0
ENDSEC
  0
SECTION
  2
THUMBNAILIMAGE
 90
    16364
310
28000000B4000000550000000100080000000000C43B000000000000000000000001000000010000000000000000FF0000FFFF0000FF0000FFFF0000FF000000FF00FF00FFFFFF0080808000C0C0C0000000FF007F7FFF000000CC006666CC00000099004C4C990000007F003F3F7F0000004C0026264C00003FFF007F9FFF
310
000033CC00667FCC00002699004C5F9900001F7F003F4F7F0000134C00262F4C00007FFF007FBFFF000066CC006699CC00004C99004C729900003F7F003F5F7F0000264C0026394C0000BFFF007FDFFF000099CC0066B2CC00007299004C859900005F7F003F6F7F0000394C0026424C0000FFFF007FFFFF0000CCCC0066CC
310
CC00009999004C999900007F7F003F7F7F00004C4C00264C4C0000FFBF007FFFDF0000CC990066CCB200009972004C998500007F5F003F7F6F00004C3900264C420000FF7F007FFFBF0000CC660066CC990000994C004C997200007F3F003F7F5F00004C2600264C390000FF3F007FFF9F0000CC330066CC7F00009926004C
310
995F00007F1F003F7F4F00004C1300264C2F0000FF00007FFF7F0000CC000066CC6600009900004C994C00007F00003F7F3F00004C0000264C26003FFF00009FFF7F0033CC00007FCC6600269900005F994C001F7F00004F7F3F00134C00002F4C26007FFF0000BFFF7F0066CC000099CC66004C99000072994C003F7F0000
310
5F7F3F00264C0000394C2600BFFF0000DFFF7F0099CC0000B2CC66007299000085994C005F7F00006F7F3F00394C0000424C2600FFFF0000FFFF7F00CCCC0000CCCC66009999000099994C007F7F00007F7F3F004C4C00004C4C2600FFBF0000FFDF7F00CC990000CCB266009972000099854C007F5F00007F6F3F004C3900
310
004C422600FF7F0000FFBF7F00CC660000CC996600994C000099724C007F3F00007F5F3F004C2600004C392600FF3F0000FF9F7F00CC330000CC7F660099260000995F4C007F1F00007F4F3F004C1300004C2F2600FF000000FF7F7F00CC000000CC66660099000000994C4C007F0000007F3F3F004C0000004C262600FF00
310
3F00FF7F9F00CC003300CC667F0099002600994C5F007F001F007F3F4F004C0013004C262F00FF007F00FF7FBF00CC006600CC66990099004C00994C72007F003F007F3F5F004C0026004C263900FF00BF00FF7FDF00CC009900CC66B20099007200994C85007F005F007F3F6F004C0039004C264200FF00FF00FF7FFF00CC
310
00CC00CC66CC0099009900994C99007F007F007F3F7F004C004C004C264C00BF00FF00DF7FFF009900CC00B266CC0072009900854C99005F007F006F3F7F0039004C0042264C007F00FF00BF7FFF006600CC009966CC004C009900724C99003F007F005F3F7F0026004C0039264C003F00FF009F7FFF003300CC007F66CC00
310
260099005F4C99001F007F004F3F7F0013004C002F264C00333333005B5B5B0084848400ADADAD00D6D6D600FFFFFF00FAFAFAFAFAFAFAFAFAFAFAFAFAFAFAFAFAFAFAFAFAFAFAFAFAFAFAFAFAFAFAFAFAFAFAFAFAFAFAFAFAFAFAFAFAFAFAFAFAFAFAFAFAFAFAFAFAFAFAFAFAFAFAFAFAFAFAFAFAFAFAFAFAFAFAFAFAFAFA
310
FAFAFAFAFAFAFAFAFAFAFAFAFAFAFAFAFAFAFAFAFAFAFAFAFAFAFAFAFAFAFAFAFAFAFAFAFAFAFAFAFAFAFAFAFAFAFAFAFAFAFAFAFAFAFAFAFAFAFAFAFAFAFAFAFAFAFAFAFAFAFAFAFAFAFAFAFAFAFAFAFAFAFAFAFAFAFAFAFAFAFAFAFAFAFAFAFAFAFAFAFAFAFAFAFAFAFAFAFAFAFAFAFAFAFAFAFAFAFAFAFAFAFAFAFAFAFA
310
FAFAFAFAFAFAFAFAFAFAFAFAFAFAFAFAFAFAFAFAFAFAFAFAFAFAFAFAFAFAFAFAFAFAFAFAFAFAFAFAFAFAFAFAFAFAFAFAFAFAFAFAFAFAFAFAFAFAFAFAFAFAFAFAFAFAFAFAFAFAFAFAFAFAFAFAFAFAFAFAFAFAFAFAFAFAFAFAFAFAFAFAFAFAFAFAFAFAFAFAFAFAFAFAFAFAFAFAFAFAFAFAFAFAFAFAFAFAFAFAFAFAFAFAFAFAFA
310
FAFAFAFAFAFAFAFAFAFAFAFAFAFAFAFAFAFAFAFAFAFAFAFAFAFAFAFAFAFAFAFAFAFAFAFAFAFAFAFAFAFAFAFAFAFAFAFAFAFAFAFAFAFAFAFAFAFAFAFAFAFAFAFAFAFAFAFAFAFAFAFAFAFAFAFAFAFAFAFAFAFAFAFAFAFAFAFAFAFAFAFAFAFAFAFAFAFAFAFAFAFAFAFAFAFAFAFAFAFAFAFAFAFAFAFAFAFAFAFAFAFAFAFAFAFAFA
310
FAFAFAFAFAFAFAFAFAFAFAFAFAFAFAFAFAFAFAFAFAFAFAFAFAFAFAFAFAFAFAFAFAFAFAFAFAFAFAFAFAFAFAFAFAFAFAFAFAFAFAFAFAFAFAFAFAFAFAFAFAFAFAFAFAFAFAFAFAFAFAFAFAFAFAFAFAFAFAFAFAFAFAFAFAFAFAFAFAFAFAFAFAFAFAFAFAFAFAFAFAFAFAFAFAFAFAFAFAFAFAFAFAFAFAFAFAFAFAFAFAFAFAFAFAFAFA
310
FAFAFAFAFAFAFAFAFAFAFAFAFAFAFAFAFAFAFAFAFAFAFAFAFAFAFAFAFAFAFAFAFAFAFAFAFAFAFAFAFAFAFAFAFAFAFAFAFAFAFAFAFAFAFAFAFAFAFAFAFAFAFAFAFAFAFAFAFAFAFAFAFAFAFAFAFAFAFAFAFAFAFAFAFAFAFAFAFAFAFAFAFAFAFAFAFAFAFAFAFAFAFAFAFAFAFAFAFAFAFAFAFAFAFAFAFAFAFAFAFAFAFAFAFAFAFA
310
FAFAFAFAFAFAFAFAFAFAFAFAFAFAFAFAFAFAFAFAFAFAFAFAFAFAFAFAFAFAFAFAFAFAFAFAFAFAFAFAFAFAFAFAFAFAFAFAFAFAFAFAFAFAFAFAFAFAFAFAFAFAFAFAFAFAFAFAFAFAFAFAFAFAFAFAFAFAFAFAFAFAFAFAFAFAFAFAFAFAFAFAFAFAFAFAFAFAFAFAFAFAFAFAFAFAFAFAFAFAFAFAFAFAFAFAFAFAFAFAFAFAFAFAFAFAFA
310
FAFAFAFAFAFAFAFAFAFAFAFAFAFAFAFAFAFAFAFAFAFAFAFAFAFAFAFAFAFAFAFAFAFAFAFAFAFAFAFAFAFAFAFAFAFAFAFAFAFAFAFAFAFAFAFAFAFAFAFAFAFAFAFAFAFAFAFAFAFAFAFAFAFAFAFAFAFAFAFAFAFAFAFAFAFAFAFAFAFAFAFAFAFAFAFAFAFAFAFAFAFAFAFAFAFAFAFAFAFAFAFAFAFAFAFAFAFAFAFAFAFAFAFAFAFAFA
310
FAFAFAFAFAFAFAFAFAFAFAFAFAFAFAFAFAFAFAFAFAFAFAFAFAFAFAFAFAFAFAFAFAFAFAFAFAFAFAFAFAFAFAFAFAFAFAFAFAFAFAFAFAFAFAFAFAFAFAFAFAFAFAFAFAFAFAFAFAFAFAFAFAFAFAFAFAFAFAFAFAFAFAFAFAFAFAFAFAFAFAFAFAFAFAFAFAFAFAFAFAFAFAFAFAFAFAFAFAFAFAFAFAFAFAFAFAFAFAFAFAFAFAFAFAFAFA
310
FAFAFAFAFAFAFAFAFAFAFAFAFAFAFAFAFAFAFAFAFAFAFAFAFAFAFAFAFAFAFAFAFAFAFAFAFAFAFAFAFAFAFAFAFAFAFAFAFAFAFAFAFAFAFAFAFAFAFAFAFAFAFAFAFAFAFAFAFAFAFAFAFAFAFAFAFAFAFAFAFAFAFAFAFAFAFAFAFAFAFAFAFAFAFAFAFAFAFAFAFAFAFAFAFAFAFAFAFAFAFAFAFAFAFAFAFAFAFAFAFAFAFAFAFAFAFA
310
FAFAFAFAFAFAFAFAFAFAFAFAFAFAFAFAFAFAFAFAFAFAFAFAFAFAFAFAFAFAFAFAFAFAFAFAFAFAFAFAFAFAFAFAFAFAFAFAFAFAFAFAFAFAFAFAFAFAFAFAFAFAFAFAFAFAFAFAFAFAFAFAFAFAFAFAFAFAFAFAFAFAFAFAFAFAFAFAFAFAFAFAFAFAFAFAFAFAFAFAFAFAFAFAFAFAFAFAFAFAFAFAFAFAFAFAFAFAFAFAFAFAFAFAFAFAFA
310
FAFAFAFAFAFAFAFAFAFAFAFAFAFAFAFAFAFAFAFAFAFAFAFAFAFAFAFAFAFAFAFAFAFAFAFAFAFAFAFAFAFAFAFAFAFAFAFAFAFAFAFAFAFAFAFAFAFAFAFAFAFAFAFAFAFAFAFAFAFAFAFAFAFAFAFAFAFAFAFAFAFAFAFAFAFAFAFAFAFAFAFAFAFAFAFAFAFAFAFAFAFAFAFAFAFAFAFAFAFAFAFAFAFAFAFAFAFAFAFAFAFAFAFAFAFAFA
310
FAFAFAFAFAFAFAFAFAFAFAFAFAFAFAFAFAFAFAFAFAFAFAFAFAFAFAFAFAFAFAFAFAFAFAFAFAFAFAFAFAFAFAFAFAFAFAFAFAFAFAFAFAFAFAFAFAFAFAFAFAFAFAFAFAFAFAFAFAFAFAFAFAFAFAFAFAFAFAFAFAFAFAFAFAFAFAFAFAFAFAFAFAFAFAFAFAFAFAFAFAFAFAFAFAFAFAFAFAFAFAFAFAFAFAFAFAFAFAFAFAFAFAFAFAFAFA
310
FAFAFAFAFAFAFAFAFAFAFAFAFAFAFAFAFAFAFAFAFAFAFAFAFAFAFAFAFAFAFAFAFAFAFAFAFAFAFAFAFAFAFAFAFAFAFAFAFAFAFAFAFAFAFAFAFAFAFAFAFAFAFAFAFAFAFAFAFAFAFAFAFAFAFAFAFAFAFAFAFAFAFAFAFAFAFAFAFAFAFAFAFAFAFAFAFAFAFAFAFAFAFAFAFAFAFAFAFAFAFAFAFAFAFAFAFAFAFAFAFAFAFAFAFAFAFA
310
FAFAFAFAFAFAFAFAFAFAFAFAFAFAFAFAFAFAFAFAFAFAFAFAFAFAFAFAFAFAFAFAFAFAFAFAFAFAFAFAFAFAFAFAFAFAFAFAFAFAFAFAFAFAFAFAFAFAFAFAFAFAFAFAFAFAFAFAFAFAFAFAFAFAFAFAFAFAFAFAFAFAFAFAFAFAFAFAFAFAFAFAFAFAFAFAFAFAFAFAFAFAFA070707070707070707FE07FAFAFAFAFAFAFAFAFAFAFAFAFA
310
FAFAFAFAFAFAFAFAFAFAFAFAFAFAFAFAFAFAFAFAFAFAFAFAFAFAFAFAFAFAFAFAFAFAFAFAFAFAFAFAFAFAFAFAFAFAFAFAFAFAFAFAFAFAFAFAFAFAFAFAFAFAFAFAFAFAFAFAFAFAFAFAFAFAFAFAFAFAFAFAFAFAFAFAFAFAFAFAFAFAFAFAFAFAFAFAFAFAFAFAFAFAFAFAFAFAFAFAFAFAFAFAFAFAFAFAFAFAFAFAFAFAFAFAFAFAFA
310
FAFAFAFAFAFAFAFAFAFAFAFAFAFAFAFAFAFAFAFAFAFAFAFAFAFAFAFA0707FEFA07FA0707FA07FE070707FAFAFAFAFAFAFAFAFAFAFAFAFAFAFAFAFAFAFAFAFAFAFAFAFAFAFAFAFAFAFAFAFAFAFAFAFAFAFAFAFAFAFAFAFAFAFAFAFAFAFAFAFAFAFAFAFAFAFAFAFAFAFAFAFAFAFAFAFAFAFAFAFAFAFAFAFAFAFAFAFAFAFAFAFA
310
FAFAFAFAFAFAFAFAFAFAFAFAFAFAFAFAFAFAFAFAFAFAFAFAFAFAFAFAFAFAFAFAFAFAFAFAFAFAFAFAFAFAFAFAFAFAFAFAFAFAFAFAFAFAFAFAFAFAFAFAFAFAFAFAFAFAFAFAFAFAFAFAFAFAFAFAFAFAFAFAFA0707070707FD0707FA07FE070707FAFAFAFAFAFAFAFAFAFAFAFAFAFAFAFAFAFAFAFAFAFAFAFAFAFAFAFAFAFAFAFA
310
FAFAFAFAFAFAFAFAFAFAFAFAFAFAFAFAFAFAFAFAFAFAFAFAFAFAFAFAFAFAFAFAFAFAFAFAFAFAFAFAFAFAFAFAFAFAFAFAFAFAFAFAFAFAFAFAFAFAFAFAFAFAFAFAFAFAFAFAFAFAFAFAFAFAFAFAFAFAFAFAFAFAFAFAFAFAFAFAFAFAFAFAFAFAFAFAFAFAFAFAFAFAFAFAFAFAFAFAFAFAFAFAFAFAFAFAFAFAFAFAFAFAFAFAFAFAFA
310
FAFAFAFAFAFA07070707070707070707070707070707FAFAFAFAFAFAFAFAFAFAFAFAFAFAFAFAFAFAFAFAFAFAFAFAFAFAFAFAFAFAFAFAFAFAFAFAFAFAFAFAFAFAFAFAFAFAFAFAFAFAFAFAFAFAFAFAFAFAFAFAFAFAFAFAFAFAFAFAFAFAFAFAFAFAFAFAFAFAFAFAFAFAFAFAFAFAFAFAFAFAFAFAFAFAFAFAFAFAFAFAFAFAFAFAFA
310
FAFAFAFAFAFAFAFAFAFAFAFAFAFAFAFAFAFAFAFAFAFAFAFAFAFAFAFAFAFAFAFAFAFAFAFAFAFAFAFAFAFAFAFAFAFAFAFAFAFAFAFAFAFAFAFAFAFAFA07070707070707070707070707070707FAFAFAFAFAFAFAFAFAFAFAFAFAFAFAFAFAFAFAFAFAFAFAFAFAFAFAFAFAFAFAFAFAFAFAFAFAFAFAFAFAFAFAFAFAFAFAFAFAFAFAFA
310
FAFAFAFAFAFAFAFAFAFAFAFAFAFAFAFAFAFAFAFAFAFAFAFAFAFAFAFAFAFAFAFAFAFAFAFAFAFAFAFAFAFAFAFAFAFAFAFAFAFAFAFAFAFAFAFAFAFAFAFAFAFAFAFAFAFAFAFAFAFAFAFAFAFAFAFAFAFAFAFAFAFAFAFAFAFAFAFAFAFAFAFAFAFAFAFAFAFAFAFAFAFAFAFAFAFAFAFAFAFAFA07070707FA07FAFA0707FAFA07FA0707
310
0707FAFAFAFAFAFAFAFAFAFAFAFAFAFAFAFAFAFAFAFAFAFAFAFAFAFAFAFAFAFAFAFAFAFAFAFAFAFAFAFAFAFAFAFAFAFAFAFAFAFAFAFAFAFAFAFAFAFAFAFAFAFAFAFAFAFAFAFAFAFAFAFAFAFAFAFAFAFAFAFAFAFAFAFAFAFAFAFAFAFAFAFAFAFAFAFAFAFAFAFAFAFAFAFAFAFAFAFAFAFAFAFAFAFAFAFAFAFAFAFAFAFAFAFAFA
310
FAFAFAFAFAFAFAFAFAFAFAFAFAFAFAFAFAFAFAFAFAFAFAFAFAFAFAFAFAFAFAFAFAFAFAFAFA070707FAFA07FAFA0707FAFA07FAFA070707FAFAFAFAFAFAFAFAFAFAFAFAFAFAFAFAFAFAFAFAFAFAFAFAFAFAFAFAFAFAFAFAFAFAFAFAFAFAFAFAFAFAFAFAFAFAFAFAFAFAFAFAFAFAFAFAFAFAFAFAFAFAFAFAFAFAFAFAFAFAFAFA
310
FAFAFAFAFAFAFAFAFAFAFAFAFAFAFAFAFAFAFAFAFAFAFAFAFAFAFAFAFAFAFAFAFAFAFAFAFAFAFAFAFAFAFAFAFAFAFAFAFAFAFAFAFAFAFAFAFAFAFAFAFAFAFAFAFAFAFAFAFAFAFAFAFAFAFAFAFAFAFAFAFAFAFAFAFAFAFAFAFAFAFA07070707070707070707070707070707FAFAFAFAFAFAFAFAFAFAFAFAFAFAFAFAFAFAFAFA
310
FAFAFAFAFAFAFAFAFAFAFAFAFAFAFAFAFAFAFAFAFAFAFAFAFAFAFAFAFAFAFAFAFAFAFAFAFAFAFAFAFAFAFAFAFAFAFAFAFAFAFAFAFAFAFAFAFAFAFAFAFAFAFAFAFAFAFAFAFAFAFAFAFAFAFAFAFAFAFAFAFAFAFAFAFAFAFAFAFAFAFAFAFAFAFAFAFAFAFAFAFAFAFAFAFAFAFAFAFAFAFAFAFAFAFAFAFAFAFAFAFAFAFAFAFAFAFA
310
FAFAFAFAFAFAFAFAFAFAFAFAFAFAFAFAFAFA0707070707070707070707070707FAFAFAFAFAFAFAFAFAFAFAFAFAFAFAFAFAFAFAFAFAFAFAFAFAFAFAFAFAFAFAFAFAFAFAFAFAFAFAFAFAFAFAFAFAFAFAFAFAFAFAFAFAFAFAFAFAFAFAFAFAFAFAFAFAFAFAFAFAFAFAFAFAFAFAFAFAFAFAFAFAFAFAFAFAFAFAFAFAFAFAFAFAFAFA
310
FAFAFAFAFAFAFAFAFAFAFAFAFAFAFAFAFAFAFAFAFAFAFAFAFAFAFAFAFAFAFAFAFAFAFAFAFAFAFAFAFAFAFAFAFAFAFAFAFAFAFAFAFAFAFAFAFAFAFAFAFAFAFAFAFAFAFAFAFAFAFA0707070707070707070707070707FAFAFAFAFAFAFAFAFAFAFAFAFAFAFAFAFAFAFAFAFAFAFAFAFAFAFAFAFAFAFAFAFAFAFAFAFAFAFAFAFAFA
310
FAFAFAFAFAFAFAFAFAFAFAFAFAFAFAFAFAFAFAFAFAFAFAFAFAFAFAFAFAFAFAFAFAFAFAFAFAFAFAFAFAFAFAFAFAFAFAFAFAFAFAFAFAFAFAFAFAFAFAFAFAFAFAFAFAFAFAFAFAFAFAFAFAFAFAFAFAFAFAFAFAFAFAFAFAFAFAFAFAFAFAFAFAFAFAFAFAFAFAFAFAFAFAFAFAFAFAFAFAFAFAFAFAFAFAFAFAFAFAFAFAFAFAFAFA0707
310
07070707070707070707FAFAFAFAFAFAFAFAFAFAFAFAFAFAFAFAFAFAFAFAFAFAFAFAFAFAFAFAFAFAFAFAFAFAFAFAFAFAFAFAFAFAFAFAFAFAFAFAFAFAFAFAFAFAFAFAFAFAFAFAFAFAFAFAFAFAFAFAFAFAFAFAFAFAFAFAFAFAFAFAFAFAFAFAFAFAFAFAFAFAFAFAFAFAFAFAFAFAFAFAFAFAFAFAFAFAFAFAFAFAFAFAFAFAFAFAFA
310
FAFAFAFAFAFAFAFAFAFAFAFAFAFAFAFAFAFAFAFAFAFAFAFAFAFAFAFAFAFAFAFAFAFAFAFAFAFAFAFAFAFAFAFAFAFAFAFAFAFAFA070707070707070707070707FAFAFAFAFAFAFAFAFAFAFAFAFAFAFAFAFAFAFAFAFAFAFAFAFAFAFAFAFAFAFAFAFAFAFAFAFAFAFAFAFAFAFAFAFAFAFAFAFAFAFAFAFAFAFAFAFAFAFAFAFAFAFAFA
310
FAFAFAFAFAFAFAFAFAFAFAFAFAFAFAFAFAFAFAFAFAFAFAFAFAFAFAFAFAFAFAFAFAFAFAFAFAFAFAFAFAFAFAFAFAFAFAFAFAFAFAFAFAFAFAFAFAFAFAFAFAFAFAFAFAFAFAFAFAFAFAFAFAFAFAFAFAFAFAFAFAFAFAFAFAFAFAFAFAFAFAFAFAFAFAFAFAFAFAFAFAFAFAFAFA07070707070707070707FAFAFAFAFAFAFAFAFAFAFAFA
310
FAFAFAFAFAFAFAFAFAFAFAFAFAFAFAFAFAFAFAFAFAFAFAFAFAFAFAFAFAFAFAFAFAFAFAFAFAFAFAFAFAFAFAFAFAFAFAFAFAFAFAFAFAFAFAFAFAFAFAFAFAFAFAFAFAFAFAFAFAFAFAFAFAFAFAFAFAFAFAFAFAFAFAFAFAFAFAFAFAFAFAFAFAFAFAFAFAFAFAFAFAFAFAFAFAFAFAFAFAFAFAFAFAFAFAFAFAFAFAFAFAFAFAFAFAFAFA
310
FAFAFAFAFAFAFAFAFAFAFAFAFAFAFAFAFAFAFAFAFAFAFAFAFAFAFAFAFAFAFA07070707070707070707FAFAFAFAFAFAFAFAFAFAFAFAFAFAFAFAFAFA0707070707070707070707070707070707070707070707070707070707070707070707070707070707070707070707FAFAFAFAFAFAFAFAFAFAFAFAFAFAFAFAFAFAFAFAFA
310
FAFAFAFAFAFAFAFAFAFAFAFAFAFAFAFAFAFAFAFAFAFAFAFAFAFAFAFAFAFAFAFAFAFAFAFAFAFAFAFAFAFAFAFAFAFAFAFAFAFAFAFAFAFAFAFAFAFAFAFAFAFAFAFAFAFAFAFAFAFAFAFAFAFAFAFAFAFAFAFAFAFAFAFA07070707070707070707FAFAFAFAFAFAFAFAFAFAFAFAFAFAFAFAFAFA070707070707070707070707070707
310
0707070707070707070707070707070707070707070707070707070707070707FAFAFAFAFAFAFAFAFAFAFAFAFAFAFAFAFAFAFAFAFAFAFAFAFAFAFAFAFAFAFAFAFAFAFAFAFAFAFAFAFAFAFAFAFAFAFAFAFAFAFAFAFAFAFAFAFAFAFAFAFAFAFAFAFAFAFAFAFAFAFAFAFAFAFAFAFAFAFAFAFAFAFAFAFAFAFAFAFAFAFAFAFAFAFA
310
FAFAFAFAFAFAFAFAFAFAFA0707070707070707FAFAFAFAFAFAFAFAFAFAFAFAFAFAFAFAFAFAFA0707070707070707070707070707070707070707070707070707070707070707070707070707070707070707070707FAFAFAFAFAFAFAFAFAFAFAFAFAFAFAFAFAFAFAFAFAFAFAFAFAFAFAFAFAFAFAFAFAFAFAFAFAFAFAFAFAFA
310
FAFAFAFAFAFAFAFAFAFAFAFAFAFAFAFAFAFAFAFAFAFAFAFAFAFAFAFAFAFAFAFAFAFAFAFAFAFAFAFAFAFAFAFAFAFAFAFAFAFAFAFAFAFAFAFAFAFAFAFAFAFAFAFA0707070707070707FAFAFAFAFAFAFAFAFAFAFAFAFAFAFAFAFAFAFA070707070707070707070707070707070707070707070707070707070707070707070707
310
07070707FAFAFAFAFAFAFAFAFAFAFAFAFAFAFAFAFAFAFAFAFAFAFAFAFAFAFAFAFAFAFAFAFAFAFAFAFAFAFAFAFAFAFAFAFAFAFAFAFAFAFAFAFAFAFAFAFAFAFAFAFAFAFAFAFAFAFAFAFAFAFAFAFAFAFAFAFAFAFAFAFAFAFAFAFAFAFAFAFAFAFAFAFAFAFAFAFAFAFAFAFAFAFAFAFAFAFAFAFAFAFAFAFA0707070707070707FAFA
310
FAFAFAFAFAFAFAFAFAFAFAFAFAFAFAFAFA07070707070707070707070707070707070707070707070707070707070707070707070707070707FAFAFAFAFAFAFAFAFAFAFAFAFAFAFAFAFAFAFAFAFAFAFAFAFAFAFAFAFAFAFAFAFAFAFAFAFAFAFAFAFAFAFAFAFAFAFAFAFAFAFAFAFAFAFAFAFAFAFAFAFAFAFAFAFAFAFAFAFAFA
310
FAFAFAFAFAFAFAFAFAFAFAFAFAFAFAFAFAFAFAFAFAFAFAFAFAFAFAFAFAFAFAFAFAFAFAFAFAFAFAFAFAFAFA0707070707070707FAFAFAFAFAFAFAFAFAFAFAFAFAFAFAFAFAFAFA07070707070707070707070707070707070707070707070707070707070707070707070707070707FAFAFAFAFAFAFAFAFAFAFAFAFAFAFAFAFA
310
FAFAFAFAFAFAFAFAFAFAFAFAFAFAFAFAFAFAFAFAFAFAFAFAFAFAFAFAFAFAFAFAFAFAFAFAFAFAFAFAFAFAFAFAFAFAFAFAFAFAFAFAFAFAFAFAFAFAFAFAFAFAFAFAFAFAFAFAFAFAFAFAFAFAFAFAFAFAFAFAFAFAFAFAFAFAFAFAFAFAFAFAFAFAFAFA0707070707070707FAFAFAFAFAFAFAFAFAFAFAFAFAFAFAFAFAFAFAFAFAFAFA
310
FAFAFAFAFAFAFAFAFAFAFAFAFAFAFAFAFAFAFAFAFAFAFAFAFAFAFAFAFAFAFAFAFAFAFAFAFAFAFAFAFAFAFAFAFAFAFAFAFAFAFAFAFAFAFAFAFAFAFAFAFAFAFAFAFAFAFAFAFAFAFAFAFAFAFAFAFAFAFAFAFAFAFAFAFAFAFAFAFAFAFAFAFAFAFAFAFAFAFAFAFAFAFAFAFAFAFAFAFAFAFAFAFAFAFAFAFAFAFAFAFAFAFAFAFAFAFA
310
FAFAFAFAFAFAFAFAFAFAFAFAFAFAFAFAFAFAFAFAFAFAFAFA07FAFA07FAFAFAFAFAFAFAFAFAFAFAFAFAFAFAFAFAFAFAFAFA0707070707070707070707070707070707FAFAFAFAFAFAFAFAFAFAFAFAFAFAFAFAFAFAFAFAFAFAFAFAFAFAFAFAFAFAFAFAFAFAFAFAFAFAFAFAFAFAFAFAFAFAFAFAFAFAFAFAFAFAFAFAFAFAFAFAFA
310
FAFAFAFAFAFAFAFAFAFAFAFAFAFAFAFAFAFAFAFAFAFAFAFAFAFAFAFAFAFAFAFAFAFAFAFAFAFAFAFAFAFAFAFAFAFAFAFAFAFAFAFAFAFAFAFAFAFAFAFAFAFAFAFAFAFAFAFAFAFAFAFAFAFAFAFAFA07FAFA07FAFAFAFAFAFAFAFAFAFAFAFAFAFAFAFAFAFAFAFAFA0707070707070707070707070707070707FAFAFAFAFAFAFAFA
310
FAFAFAFAFAFAFAFAFAFAFAFAFAFAFAFAFAFAFAFAFAFAFAFAFAFAFAFAFAFAFAFAFAFAFAFAFAFAFAFAFAFAFAFAFAFAFAFAFAFAFAFAFAFAFAFAFAFAFAFAFAFAFAFAFAFAFAFAFAFAFAFAFAFAFAFAFAFAFAFAFAFAFAFAFAFAFAFAFAFAFAFAFAFAFAFAFAFAFAFAFAFAFAFAFAFAFAFAFAFAFAFAFAFAFAFAFAFAFAFAFAFAFAFAFAFAFA
310
FAFAFA07070707FAFAFAFAFAFAFAFAFAFAFAFAFAFAFAFAFAFAFAFAFA0707070707070707070707070707070707FAFAFAFAFAFAFAFAFAFAFAFAFAFAFAFAFAFAFAFAFAFAFAFAFAFAFAFAFAFAFAFAFAFAFAFAFAFAFAFAFAFAFAFAFAFAFAFAFAFAFAFAFAFAFAFAFAFAFAFAFAFAFAFAFAFAFAFAFAFAFAFAFAFAFAFAFAFAFAFAFAFA
310
FAFAFAFAFAFAFAFAFAFAFAFAFAFAFAFAFAFAFAFAFAFAFAFAFAFAFAFAFAFAFAFAFAFAFAFAFAFAFAFAFAFAFAFAFAFAFAFAFAFAFAFAFAFAFAFAFA0707FAFAFAFAFAFAFAFAFAFAFAFAFAFAFAFAFAFAFAFAFAFAFAFAFAFAFAFAFAFAFAFAFAFAFAFAFAFAFAFAFAFAFAFAFAFAFAFAFAFAFAFAFAFAFAFAFAFAFAFAFAFAFAFAFAFAFAFA
310
FAFAFAFAFAFAFAFAFAFAFAFAFAFAFAFAFAFAFAFAFAFAFAFAFAFAFAFAFAFAFAFAFAFAFAFAFAFAFAFAFAFAFAFAFAFAFAFAFAFAFAFAFAFAFAFAFAFAFAFAFAFAFAFAFAFAFAFAFAFAFAFAFAFAFAFAFAFAFAFAFAFAFAFAFAFAFAFAFAFAFAFAFAFAFAFAFAFAFAFAFAFAFAFAFAFAFAFAFAFA0707FAFAFAFAFAFAFAFAFAFAFAFAFAFAFA
310
FAFAFAFAFAFAFA0707070707070707070707070707070707070707070707070707070707FAFAFAFAFAFAFAFAFAFAFAFAFAFAFAFAFAFAFAFAFAFAFAFAFAFAFAFAFAFAFAFAFAFAFAFAFAFAFAFAFAFAFAFAFAFAFAFAFAFAFAFAFAFAFAFAFAFAFAFAFAFAFAFAFAFAFAFAFAFAFAFAFAFAFAFAFAFAFAFAFAFAFAFAFAFAFAFAFAFAFA
310
FAFAFAFAFAFAFAFAFAFAFAFAFAFAFAFAFAFAFAFAFAFAFAFAFAFAFAFAFAFAFAFAFAFAFAFA0707FAFAFAFAFAFAFAFAFAFAFAFAFAFAFAFAFAFAFAFAFAFA0707070707070707070707070707070707070707070707070707070707FAFAFAFAFAFAFAFAFAFAFAFAFAFAFAFAFAFAFAFAFAFAFAFAFAFAFAFAFAFAFAFAFAFAFAFAFAFA
310
FAFAFAFAFAFAFAFAFAFAFAFAFAFAFAFAFAFAFAFAFAFAFAFAFAFAFAFAFAFAFAFAFAFAFAFAFAFAFAFAFAFAFAFAFAFAFAFAFAFAFAFAFAFAFAFAFAFAFAFAFAFAFAFAFAFAFAFAFAFAFAFAFAFAFAFAFAFAFAFAFAFAFAFAFAFAFAFAFA0707FAFAFAFAFAFAFAFAFAFAFAFAFAFAFAFAFAFAFAFAFAFA0707070707070707070707070707
310
070707070707070707070707070707FAFAFAFAFAFAFAFAFAFAFAFAFAFAFAFAFAFAFAFAFAFAFAFAFAFAFAFAFAFAFAFAFAFAFAFAFAFAFAFAFAFAFAFAFAFAFAFAFAFAFAFAFAFAFAFAFAFAFAFAFAFAFAFAFAFAFAFAFAFAFAFAFAFAFAFAFAFAFAFAFAFAFAFAFAFAFAFAFAFAFAFAFAFAFAFAFAFAFAFAFAFAFAFAFAFAFAFAFAFAFAFA
310
FAFAFAFAFAFAFAFAFAFAFAFAFAFAFA0707FAFAFAFAFAFAFAFAFAFAFAFAFAFAFAFAFAFAFAFAFAFA07070707070707070707070707070707070707070707070707FAFAFAFAFAFAFAFAFAFAFAFAFAFAFAFAFAFAFAFAFAFAFAFAFAFAFAFAFAFAFAFAFAFAFAFAFAFAFAFAFAFAFAFAFAFAFAFAFAFAFAFAFAFAFAFAFAFAFAFAFAFAFA
310
FAFAFAFAFAFAFAFAFAFAFAFAFAFAFAFAFAFAFAFAFAFAFAFAFAFAFAFAFAFAFAFAFAFAFAFAFAFAFAFAFAFAFAFAFAFAFAFAFAFAFAFAFAFAFAFAFAFAFAFAFAFAFAFAFAFAFAFA0707FAFAFAFAFAFAFAFAFAFAFAFAFAFAFAFAFAFAFAFAFAFA07070707070707070707070707070707070707070707070707FAFAFAFAFAFAFAFAFAFA
310
FAFAFAFAFAFAFAFAFAFAFAFAFAFAFAFAFAFAFAFAFAFAFAFAFAFAFAFAFAFAFAFAFAFAFAFAFAFAFAFAFAFAFAFAFAFAFAFAFAFAFAFAFAFAFAFAFAFAFAFAFAFAFAFAFAFAFAFAFAFAFAFAFAFAFAFAFAFAFAFAFAFAFAFAFAFAFAFAFAFAFAFAFAFAFAFAFAFAFAFAFAFAFAFAFAFAFAFAFAFAFAFAFAFAFAFAFAFAFAFAFA0707FAFAFAFA
310
FAFAFAFAFAFAFAFAFAFAFAFAFAFAFAFAFAFA07070707070707070707070707070707070707070707070707FAFAFAFAFAFAFAFAFAFAFAFAFAFAFAFAFAFAFAFAFAFAFAFAFAFAFAFAFAFAFAFAFAFAFAFAFAFAFAFAFAFAFAFAFAFAFAFAFAFAFAFAFAFAFAFAFAFAFAFAFAFAFAFAFAFAFAFAFAFAFAFAFAFAFAFAFAFAFAFAFAFAFAFA
310
FAFAFAFAFAFAFAFAFAFAFAFAFAFAFAFAFAFAFAFAFAFAFAFAFAFAFAFAFAFAFAFAFAFAFAFAFAFAFAFAFAFAFAFAFAFAFA0707FAFAFAFAFAFAFAFAFAFAFAFAFAFAFAFAFAFAFAFAFAFAFAFAFAFAFAFAFAFAFAFAFAFAFAFAFAFAFAFAFAFAFAFAFAFAFAFAFAFAFAFAFAFAFAFAFAFAFAFAFAFAFAFAFAFAFAFAFAFAFAFAFAFAFAFAFAFA
310
FAFAFAFAFAFAFAFAFAFAFAFAFAFAFAFAFAFAFAFAFAFAFAFAFAFAFAFAFAFAFAFAFAFAFAFAFAFAFAFAFAFAFAFAFAFAFAFAFAFAFAFAFAFAFAFAFAFAFAFAFAFAFAFAFAFAFAFAFAFAFAFAFAFAFAFAFAFAFAFAFAFAFAFAFAFAFAFAFAFAFAFAFAFAFAFAFAFAFAFA0707FAFAFAFAFAFAFAFAFAFAFAFAFAFAFAFAFAFAFAFAFAFA070707
310
07070707070707070707070707070707070707FAFAFAFAFAFAFAFAFAFAFAFAFAFAFAFAFAFAFAFAFAFAFAFAFAFAFAFAFAFAFAFAFAFAFAFAFAFAFAFAFAFAFAFAFAFAFAFAFAFAFAFAFAFAFAFAFAFAFAFAFAFAFAFAFAFAFAFAFAFAFAFAFAFAFAFAFAFAFAFAFAFAFAFAFAFAFAFAFAFAFAFAFAFAFAFAFAFAFAFAFAFAFAFAFAFAFAFA
310
FAFAFAFAFAFAFAFAFAFAFAFAFAFAFAFAFAFAFAFAFAFAFAFAFAFA0707FAFAFAFAFAFAFAFAFAFAFAFAFAFAFAFAFAFAFAFAFAFA07070707070707070707070707070707070707070707FAFAFAFAFAFAFAFAFAFAFAFAFAFAFAFAFAFAFAFAFAFAFAFAFAFAFAFAFAFAFAFAFAFAFAFAFAFAFAFAFAFAFAFAFAFAFAFAFAFAFAFAFAFAFA
310
FAFAFAFAFAFAFAFAFAFAFAFAFAFAFAFAFAFAFAFAFAFAFAFAFAFAFAFAFAFAFAFAFAFAFAFAFAFAFAFAFAFAFAFAFAFAFAFAFAFAFAFAFAFAFAFAFAFAFAFAFAFAFAFAFAFAFAFAFAFAFAFAFAFAFAFAFAFAFA0707FAFAFAFAFAFAFAFAFAFAFAFAFAFAFAFAFAFAFAFAFAFA07070707070707070707070707070707070707070707FAFA
310
FAFAFAFAFAFAFAFAFAFAFAFAFAFAFAFAFAFAFAFAFAFAFAFAFAFAFAFAFAFAFAFAFAFAFAFAFAFAFAFAFAFAFAFAFAFAFAFAFAFAFAFAFAFAFAFAFAFAFAFAFAFAFAFAFAFAFAFAFAFAFAFAFAFAFAFAFAFAFAFAFAFAFAFAFAFAFAFAFAFAFAFAFAFAFAFAFAFAFAFAFAFAFAFAFAFAFAFAFAFAFAFAFAFAFAFAFAFAFAFAFAFAFAFAFAFAFA
310
FAFAFAFAFA0707FAFAFAFAFAFAFAFAFAFAFAFAFAFAFAFAFAFAFAFAFAFA07070707070707070707070707070707070707070707070707FAFAFAFAFAFAFAFAFAFAFAFAFAFAFAFAFAFAFAFAFAFAFAFAFAFAFAFAFAFAFAFAFAFAFAFAFAFAFAFAFAFAFAFAFAFAFAFAFAFAFAFAFAFAFAFAFAFAFAFAFAFAFAFAFAFAFAFAFAFAFAFAFA
310
FAFAFAFAFAFAFAFAFAFAFAFAFAFAFAFAFAFAFAFAFAFAFAFAFAFAFAFAFAFAFAFAFAFAFAFAFAFAFAFAFAFAFAFAFAFAFAFAFAFAFAFAFAFAFAFAFAFA0707FAFAFAFAFAFAFAFAFAFAFAFAFAFAFAFAFAFAFAFAFAFA07070707070707070707070707070707070707070707070707FAFAFAFAFAFAFAFAFAFAFAFAFAFAFAFAFAFAFAFA
310
FAFAFAFAFAFAFAFAFAFAFAFAFAFAFAFAFAFAFAFAFAFAFAFAFAFAFAFAFAFAFAFAFAFAFAFAFAFAFAFAFAFAFAFAFAFAFAFAFAFAFAFAFAFAFAFAFAFAFAFAFAFAFAFAFAFAFAFAFAFAFAFAFAFAFAFAFAFAFAFAFAFAFAFAFAFAFAFAFAFAFAFAFAFAFAFAFAFAFAFAFAFAFAFAFAFAFAFAFAFAFA0707FAFAFAFAFAFAFAFAFAFAFAFAFAFA
310
FAFAFAFAFAFAFAFA07070707070707070707070707070707070707070707070707FAFAFAFAFAFAFAFAFAFAFAFAFAFAFAFAFAFAFAFAFAFAFAFAFAFAFAFAFAFAFAFAFAFAFAFAFAFAFAFAFAFAFAFAFAFAFAFAFAFAFAFAFAFAFAFAFAFAFAFAFAFAFAFAFAFAFAFAFAFAFAFAFAFAFAFAFAFAFAFAFAFAFAFAFAFAFAFAFAFAFAFAFAFA
310
FAFAFAFAFAFAFAFAFAFAFAFAFAFAFAFAFAFAFAFAFAFAFAFAFAFAFAFAFAFAFAFAFAFAFAFAFA0707FAFAFAFAFAFAFAFAFAFAFAFAFAFAFAFAFAFAFAFAFAFAFAFAFAFAFAFAFAFAFAFAFAFAFAFAFAFAFAFAFAFAFAFAFAFAFAFAFAFAFAFAFAFAFAFAFAFAFAFAFAFAFAFAFAFAFAFAFAFAFAFAFAFAFAFAFAFAFAFAFAFAFAFAFAFAFAFA
310
FAFAFAFAFAFAFAFAFAFAFAFAFAFAFAFAFAFAFAFAFAFAFAFAFAFAFAFAFAFAFAFAFAFAFAFAFAFAFAFAFAFAFAFAFAFAFAFAFAFAFAFAFAFAFAFAFAFAFAFAFAFAFAFAFAFAFAFAFAFAFAFAFAFAFAFAFAFAFAFAFAFAFAFAFAFAFAFAFAFA0707FAFAFAFAFAFAFAFAFAFAFAFAFAFAFAFAFAFAFAFAFAFA07070707070707070707070707
310
0707070707070707070707070707070707070707070707070707070707070707070707070707FAFAFAFAFAFAFAFAFAFAFAFAFAFAFAFAFAFAFAFAFAFAFAFAFAFAFAFAFAFAFAFAFAFAFAFAFAFAFAFAFAFAFAFAFAFAFAFAFAFAFAFAFAFAFAFAFAFAFAFAFAFAFAFAFAFAFAFAFAFAFAFAFAFAFAFAFAFAFAFAFAFAFAFAFAFAFAFAFA
310
FAFAFAFAFAFAFAFAFAFAFAFAFAFAFAFA0707FAFAFAFAFAFAFAFAFAFAFAFAFAFAFAFAFAFAFAFAFAFA070707070707070707070707070707070707070707070707070707070707070707070707070707070707070707070707070707FAFAFAFAFAFAFAFAFAFAFAFAFAFAFAFAFAFAFAFAFAFAFAFAFAFAFAFAFAFAFAFAFAFAFAFA
310
FAFAFAFAFAFAFAFAFAFAFAFAFAFAFAFAFAFAFAFAFAFAFAFAFAFAFAFAFAFAFAFAFAFAFAFAFAFAFAFAFAFAFAFAFAFAFAFAFAFAFAFAFAFAFAFAFAFAFAFAFAFAFAFAFAFAFAFAFA0707FAFAFAFAFAFAFAFAFAFAFAFAFAFAFAFAFAFAFAFAFAFA07070707070707070707070707070707070707070707070707070707070707070707
310
0707070707070707070707070707070707FAFAFAFAFAFAFAFAFAFAFAFAFAFAFAFAFAFAFAFAFAFAFAFAFAFAFAFAFAFAFAFAFAFAFAFAFAFAFAFAFAFAFAFAFAFAFAFAFAFAFAFAFAFAFAFAFAFAFAFAFAFAFAFAFAFAFAFAFAFAFAFAFAFAFAFAFAFAFAFAFAFAFAFAFAFAFAFAFAFAFAFAFAFAFAFAFAFAFAFAFAFAFAFAFA0707FAFAFA
310
FAFAFAFAFAFAFAFAFAFAFAFAFAFAFAFAFAFAFAFAFAFAFAFAFAFAFAFAFAFAFAFAFAFAFAFAFAFAFAFAFAFAFAFAFAFAFAFAFAFAFAFAFAFAFAFAFAFAFAFAFAFAFAFAFAFAFAFAFAFAFAFAFAFAFAFAFAFAFAFAFAFAFAFAFAFAFAFAFAFAFAFAFAFAFAFAFAFAFAFAFAFAFAFAFAFAFAFAFAFAFAFAFAFAFAFAFAFAFAFAFAFAFAFAFAFAFA
310
FAFAFAFAFAFAFAFAFAFAFAFAFAFAFAFAFAFAFAFAFAFAFAFAFAFAFAFAFAFAFAFAFAFAFAFAFAFAFAFAFAFAFAFAFAFAFAFA0707FAFAFAFAFAFAFAFAFAFAFAFAFAFAFAFAFAFAFAFAFAFA070707070707070707070707070707070707070707FAFAFAFAFAFAFAFAFAFAFAFAFAFAFAFAFAFAFAFAFAFAFAFAFAFAFAFAFAFAFAFAFAFA
310
FAFAFAFAFAFAFAFAFAFAFAFAFAFAFAFAFAFAFAFAFAFAFAFAFAFAFAFAFAFAFAFAFAFAFAFAFAFAFAFAFAFAFAFAFAFAFAFAFAFAFAFAFAFAFAFAFAFAFAFAFAFAFAFAFAFAFAFAFAFAFAFAFAFAFAFAFAFAFAFAFAFAFAFAFAFAFAFAFAFAFAFAFAFAFAFAFAFAFAFAFA0707FAFAFAFAFAFAFAFAFAFAFAFAFAFAFAFAFAFAFAFAFAFA0707
310
07070707070707070707070707070707070707FAFAFAFAFAFAFAFAFAFAFAFAFAFAFAFAFAFAFAFAFAFAFAFAFAFAFAFAFAFAFAFAFAFAFAFAFAFAFAFAFAFAFAFAFAFAFAFAFAFAFAFAFAFAFAFAFAFAFAFAFAFAFAFAFAFAFAFAFAFAFAFAFAFAFAFAFAFAFAFAFAFAFAFAFAFAFAFAFAFAFAFAFAFAFAFAFAFAFAFAFAFAFAFAFAFAFAFA
310
FAFAFAFAFAFAFAFAFAFAFAFAFAFAFAFAFAFAFAFAFAFAFAFAFAFAFA0707FAFAFAFAFAFAFAFAFAFAFAFAFAFAFAFAFAFAFAFAFAFA070707070707070707070707070707070707070707FAFAFAFAFAFAFAFAFAFAFAFAFAFAFAFAFAFAFAFAFAFAFAFAFAFAFAFAFAFAFAFAFAFAFAFAFAFAFAFAFAFAFAFAFAFAFAFAFAFAFAFAFAFAFA
310
FAFAFAFAFAFAFAFAFAFAFAFAFAFAFAFAFAFAFAFAFAFAFAFAFAFAFAFAFAFAFAFAFAFAFAFAFAFAFAFAFAFAFAFAFAFAFAFAFAFAFAFAFAFAFAFAFAFAFAFAFAFAFAFAFAFAFAFAFAFAFAFAFAFAFAFAFAFAFAFA0707FAFAFAFAFAFAFAFAFAFAFAFAFAFAFAFAFAFAFAFAFAFAFAFAFAFAFAFAFAFAFAFAFAFAFAFAFAFAFAFAFAFAFAFAFA
310
FAFAFAFAFAFAFAFAFAFAFAFAFAFAFAFAFAFAFAFAFAFAFAFAFAFAFAFAFAFAFAFAFAFAFAFAFAFAFAFAFAFAFAFAFAFAFAFAFAFAFAFAFAFAFAFAFAFAFAFAFAFAFAFAFAFAFAFAFAFAFAFAFAFAFAFAFAFAFAFAFAFAFAFAFAFAFAFAFAFAFAFAFAFAFAFAFAFAFAFAFAFAFAFAFAFAFAFAFAFAFAFAFAFAFAFAFAFAFAFAFAFAFAFAFAFAFA
310
FAFAFAFAFAFA0707FAFAFAFAFAFAFAFAFAFAFAFAFAFAFAFAFAFAFAFAFAFAFAFAFAFAFAFAFAFAFAFAFAFAFAFAFAFAFAFAFAFAFAFAFAFAFAFAFAFAFAFAFAFAFAFAFAFAFAFAFAFAFAFAFAFAFAFAFAFAFAFAFAFAFAFAFAFAFAFAFAFAFAFAFAFAFAFAFAFAFAFAFAFAFAFAFAFAFAFAFAFAFAFAFAFAFAFAFAFAFAFAFAFAFAFAFAFAFA
310
FAFAFAFAFAFAFAFAFAFAFAFAFAFAFAFAFAFAFAFAFAFAFAFAFAFAFAFAFAFAFAFAFAFAFAFAFAFAFAFAFAFAFAFAFAFAFAFAFAFAFAFAFAFAFAFAFAFAFA0707FAFAFAFAFAFAFAFAFAFAFAFAFAFAFAFAFAFAFAFAFAFAFAFAFAFAFAFAFAFAFAFAFAFAFAFAFAFAFAFAFAFAFAFAFAFAFAFAFAFAFAFAFAFAFAFAFAFAFAFAFAFAFAFAFAFA
310
FAFAFAFAFAFAFAFAFAFAFAFAFAFAFAFAFAFAFAFAFAFAFAFAFAFAFAFAFAFAFAFAFAFAFAFAFAFAFAFAFAFAFAFAFAFAFAFAFAFAFAFAFAFAFAFAFAFAFAFAFAFAFAFAFAFAFAFAFAFAFAFAFAFAFAFAFAFAFAFAFAFAFAFAFAFAFAFAFAFAFAFAFAFAFAFAFAFAFAFAFAFAFAFAFAFAFAFAFAFAFAFA0707FAFAFAFAFAFAFAFAFAFAFAFAFA
310
FAFAFAFAFAFAFAFAFAFAFAFAFAFAFAFAFAFAFAFAFAFAFAFAFAFAFAFAFAFAFAFAFAFAFAFAFAFAFAFAFAFAFAFAFAFAFAFAFAFAFAFAFAFAFAFAFAFAFAFAFAFAFAFAFAFAFAFAFAFAFAFAFAFAFAFAFAFAFAFAFAFAFAFAFAFAFAFAFAFAFAFAFAFAFAFAFAFAFAFAFAFAFAFAFAFAFAFAFAFAFAFAFAFAFAFAFAFAFAFAFAFAFAFAFAFAFA
310
FAFAFAFAFAFAFAFAFAFAFAFAFAFAFAFAFAFAFAFAFAFAFAFAFAFAFAFAFAFAFAFAFAFAFAFAFAFA0707FAFAFAFAFAFAFAFAFAFAFAFAFAFAFAFAFAFAFAFAFAFAFAFAFAFAFAFAFAFAFAFAFAFAFAFAFAFAFAFAFAFAFAFAFAFAFAFAFAFAFAFAFAFAFAFAFAFAFAFAFAFAFAFAFAFAFAFAFAFAFAFAFAFAFAFAFAFAFAFAFAFAFAFAFAFAFA
310
FAFAFAFAFAFAFAFAFAFAFAFAFAFAFAFAFAFAFAFAFAFAFAFAFAFAFAFAFAFAFAFAFAFAFAFAFAFAFAFAFAFAFAFAFAFAFAFAFAFAFAFAFAFAFAFAFAFAFAFAFAFAFAFAFAFAFAFAFAFAFAFAFAFAFAFAFAFAFAFAFAFAFAFAFAFAFAFAFAFAFA0707FAFAFAFAFAFAFAFAFAFAFAFAFAFAFAFAFAFAFAFAFAFAFAFAFAFAFAFAFAFAFAFAFAFA
310
FAFAFAFAFAFAFAFAFAFAFAFAFAFAFAFAFAFAFAFAFAFAFAFAFAFAFAFAFAFAFAFAFAFAFAFAFAFAFAFAFAFAFAFAFAFAFAFAFAFAFAFAFAFAFAFAFAFAFAFAFAFAFAFAFAFAFAFAFAFAFAFAFAFAFAFAFAFAFAFAFAFAFAFAFAFAFAFAFAFAFAFAFAFAFAFAFAFAFAFAFAFAFAFAFAFAFAFAFAFAFAFAFAFAFAFAFAFAFAFAFAFAFAFAFAFAFA
310
FAFAFAFAFAFAFAFAFAFAFAFAFAFAFA070707070707FAFAFAFAFAFAFAFAFAFAFAFAFAFAFAFAFAFAFAFAFAFAFAFAFAFAFAFAFAFAFAFAFAFAFAFAFAFAFAFAFAFAFAFAFAFAFAFAFAFAFAFAFAFAFAFAFAFAFAFAFAFAFAFAFAFAFAFAFAFAFAFAFAFAFAFAFAFAFAFAFAFAFAFAFAFAFAFAFAFAFAFAFAFAFAFAFAFAFAFAFAFAFAFAFAFA
310
FAFAFAFAFAFAFAFAFAFAFAFAFAFAFAFAFAFAFAFAFAFAFAFAFAFAFAFAFAFAFAFAFAFAFAFAFAFAFAFAFAFAFAFAFAFAFAFAFAFAFAFAFAFAFAFAFAFAFAFAFAFAFAFAFAFAFAFB070707070707FBFAFAFAFAFAFAFAFAFAFAFAFAFAFAFAFAFAFAFAFAFAFAFAFAFAFAFAFAFAFAFAFAFAFAFAFAFAFAFAFAFAFAFAFAFAFAFAFAFAFAFAFA
310
FAFAFAFAFAFAFAFAFAFAFAFAFAFAFAFAFAFAFAFAFAFAFAFAFAFAFAFAFAFAFAFAFAFAFAFAFAFAFAFAFAFAFAFAFAFAFAFAFAFAFAFAFAFAFAFAFAFAFAFAFAFAFAFAFAFAFAFAFAFAFAFAFAFAFAFAFAFAFAFAFAFAFAFAFAFAFAFAFAFAFAFAFAFAFAFAFAFAFAFAFAFAFAFAFAFAFAFAFAFAFAFAFAFAFAFAFAFAFAFAFDFDFAFAFAFAFD
310
FDFAFAFAFAFAFAFAFAFAFAFAFAFAFAFAFAFAFAFAFAFAFAFAFAFAFAFAFAFAFAFAFAFAFAFAFAFAFAFAFAFAFAFAFAFAFAFAFAFAFAFAFAFAFAFAFAFAFAFAFAFAFAFAFAFAFAFAFAFAFAFAFAFAFAFAFAFAFAFAFAFAFAFAFAFAFAFAFAFAFAFAFAFAFAFAFAFAFAFAFAFAFAFAFAFAFAFAFAFAFAFAFAFAFAFAFAFAFAFAFAFAFAFAFAFAFA
310
FAFAFAFAFAFAFAFAFAFAFAFAFAFAFAFAFAFAFAFAFAFAFAFAFAFAFAFAFAFAFAFAFAFAFAFAFAFAFAFAFAFAFAFAFAFAFEFBFAFAFAFAFBFEFAFAFAFAFAFAFAFAFAFAFAFAFAFAFAFAFAFAFAFAFAFAFAFAFAFAFAFAFAFAFAFAFAFAFAFAFAFAFAFAFAFAFAFAFAFAFAFAFAFAFAFAFAFAFAFAFAFAFAFAFAFAFAFAFAFAFAFAFAFAFAFAFA
310
FAFAFAFAFAFAFAFAFAFAFAFAFAFAFAFAFAFAFAFAFAFAFAFAFAFAFAFAFAFAFAFAFAFAFAFAFAFAFAFAFAFAFAFAFAFAFAFAFAFAFAFAFAFAFAFAFAFAFAFAFAFAFAFAFAFAFAFAFAFAFAFAFAFAFAFAFAFAFAFAFAFAFAFAFAFAFAFAFAFAFAFAFAFAFAFAFAFAFA07FAFAFAFAFAFA07FAFAFAFAFAFAFAFAFAFAFAFAFAFAFAFAFAFAFAFA
310
FAFAFAFAFAFAFAFAFAFAFAFAFAFAFAFAFAFAFAFAFAFAFAFAFAFAFAFAFAFAFAFAFAFAFAFAFAFAFAFAFAFAFAFAFAFAFAFAFAFAFAFAFAFAFAFAFAFAFAFAFAFAFAFAFAFAFAFAFAFAFAFAFAFAFAFAFAFAFAFAFAFAFAFAFAFAFAFAFAFAFAFAFAFAFAFAFAFAFAFAFAFAFAFAFAFAFAFAFAFAFAFAFAFAFAFAFAFAFAFAFAFAFAFAFAFAFA
310
FAFAFAFAFAFAFAFAFAFAFAFAFAFAFAFAFAFAFAFAFAFAFAFAFBFEFAFAFAFAFAFAFEFBFAFAFAFAFAFAFAFAFAFAFAFAFAFAFAFAFAFAFAFAFAFAFAFAFAFAFAFAFAFAFAFAFAFAFAFAFAFAFAFAFAFAFAFAFAFAFAFAFAFAFAFAFAFAFAFAFAFAFAFAFAFAFAFAFAFAFAFAFAFAFAFAFAFAFAFAFAFAFAFAFAFAFAFAFAFAFAFAFAFAFAFAFA
310
FAFAFAFAFAFAFAFAFAFAFAFAFAFAFAFAFAFAFAFAFAFAFAFAFAFAFAFAFAFAFAFAFAFAFAFAFAFAFAFAFAFAFAFAFAFAFAFAFAFAFAFAFAFAFAFAFAFAFAFAFAFAFAFAFAFAFAFAFAFAFAFAFAFAFAFAFAFDFDFAFAFAFAFAFAFDFDFAFAFAFAFAFAFAFAFAFAFAFAFAFAFAFAFAFAFAFAFAFAFAFAFAFAFAFAFAFAFAFAFAFAFAFAFAFAFAFA
310
FAFAFAFAFAFAFAFAFAFAFAFAFAFAFAFAFAFAFAFAFAFAFAFAFAFAFAFAFAFAFAFAFAFAFAFAFAFAFAFAFAFAFAFAFAFAFAFAFAFAFAFAFAFAFAFAFAFAFAFAFAFAFAFAFAFAFAFAFAFAFAFAFAFAFAFAFAFAFAFAFAFAFAFAFAFAFAFAFAFAFAFAFAFAFAFAFAFAFAFAFAFAFAFAFAFAFAFAFAFAFAFAFAFAFAFAFAFAFAFAFAFAFAFAFAFAFA
310
FAFAFAFEFBFAFAFAFAFAFAFBFEFAFAFAFAFAFAFAFAFAFAFAFAFAFAFAFAFAFAFAFAFAFAFAFAFAFAFAFAFAFAFAFAFAFAFAFAFAFAFAFAFAFAFAFAFAFAFAFAFAFAFAFAFAFAFAFAFAFAFAFAFAFAFAFAFAFAFAFAFAFAFAFAFAFAFAFAFAFAFAFAFAFAFAFAFAFAFAFAFAFAFAFAFAFAFAFAFAFAFAFAFAFAFAFAFAFAFAFAFAFAFAFAFAFA
310
FAFAFAFAFAFAFAFAFAFAFAFAFAFAFAFAFAFAFAFAFAFAFAFAFAFAFAFAFAFAFAFAFAFAFAFAFAFAFAFAFAFAFAFAFAFAFAFAFAFAFAFAFAFAFAFA0707FAFAFAFAFAFA0707FAFAFAFAFAFAFAFAFAFAFAFAFAFAFAFAFAFAFAFAFAFAFAFAFAFAFAFAFAFAFAFAFAFAFAFAFAFAFAFAFAFAFAFAFAFAFAFAFAFAFAFAFAFAFAFAFAFAFAFAFA
310
FAFAFAFAFAFAFAFAFAFAFAFAFAFAFAFAFAFAFAFAFAFAFAFAFAFAFAFAFAFAFAFAFAFAFAFAFAFAFAFAFAFAFAFAFAFAFAFAFAFAFAFAFAFAFAFAFAFAFAFAFAFAFAFAFAFAFAFAFAFAFAFAFAFAFAFAFAFAFAFAFAFAFAFAFAFAFAFAFAFAFAFAFAFAFAFAFAFAFAFAFAFAFAFAFAFAFAFAFAFAFA070707070707FAFAFAFAFAFAFAFAFAFA
310
FAFAFAFAFAFAFAFAFAFAFAFAFAFAFAFAFAFAFAFAFAFAFAFAFAFAFAFAFAFAFAFAFAFAFAFAFAFAFAFAFAFAFAFAFAFAFAFAFAFAFAFAFAFAFAFAFAFAFAFAFAFAFAFAFAFAFAFAFAFAFAFAFAFAFAFAFAFAFAFAFAFAFAFAFAFAFAFAFAFAFAFAFAFAFAFAFAFAFAFAFAFAFAFAFAFAFAFAFAFAFAFAFAFAFAFAFAFAFAFAFAFAFAFAFAFAFA
310
FAFAFAFAFAFAFAFAFAFAFAFAFAFAFAFAFAFAFAFAFAFAFAFAFAFAFAFAFAFAFAFAFAFAFAFAFAFAFAFAFAFAFAFAFAFAFAFAFAFAFAFAFAFAFAFAFAFAFAFAFAFAFAFAFAFAFAFAFAFAFAFAFAFAFAFAFAFAFAFAFAFAFAFAFAFAFAFAFAFAFAFAFAFAFAFAFAFAFAFAFAFAFAFAFAFAFAFAFAFAFAFAFAFAFAFAFAFAFAFAFAFAFAFAFAFAFA
310
FAFAFAFAFAFAFAFAFAFAFAFAFAFAFAFAFAFAFAFAFAFAFAFAFAFAFAFAFAFAFAFAFAFAFAFAFAFAFAFAFAFAFAFAFAFAFAFAFAFAFAFAFAFAFAFAFAFAFAFAFAFAFAFAFAFAFAFAFAFAFAFAFAFAFAFAFAFAFAFAFAFAFAFAFAFAFAFAFAFAFAFAFAFAFAFAFAFAFAFAFAFAFAFAFAFAFAFAFAFAFAFAFAFAFAFAFAFAFAFAFAFAFAFAFAFAFA
310
FAFAFAFAFAFAFAFAFAFAFAFAFAFAFAFAFAFAFAFAFAFAFAFAFAFAFAFAFAFAFAFAFAFAFAFAFAFAFAFAFAFAFAFAFAFAFAFAFAFAFAFAFAFAFAFAFAFAFAFAFAFAFAFAFAFAFAFAFAFAFAFAFAFAFAFAFAFAFAFAFAFAFAFAFAFAFAFAFAFAFAFAFAFAFAFAFAFAFAFAFAFAFAFAFAFAFAFAFAFAFAFAFAFAFAFAFAFAFAFAFAFAFAFAFAFAFA
310
FAFAFAFAFAFAFAFAFAFAFAFAFAFAFAFAFAFAFAFAFAFAFAFAFAFAFAFAFAFAFAFAFAFAFAFAFAFAFAFAFAFAFAFAFAFAFAFAFAFAFAFAFAFAFAFAFAFAFAFAFAFAFAFAFAFAFAFAFAFAFAFAFAFAFAFAFAFAFAFAFAFAFAFAFAFAFAFAFAFAFAFAFAFAFAFAFAFAFAFAFAFAFAFAFAFAFAFAFAFAFAFAFAFAFAFAFAFAFAFAFAFAFAFAFAFAFA
310
FAFAFAFAFAFAFAFAFAFAFAFAFAFAFAFAFAFAFAFAFAFAFAFAFAFAFAFAFAFAFAFAFAFAFAFAFAFAFAFAFAFAFAFAFAFAFAFAFAFAFAFAFAFAFAFAFAFAFAFAFAFAFAFAFAFAFAFAFAFAFAFAFAFAFAFAFAFAFAFAFAFAFAFAFAFAFAFAFAFAFAFAFAFAFAFAFAFAFAFAFAFAFAFAFAFAFAFAFAFAFAFAFAFAFAFAFAFAFAFAFAFAFAFAFAFAFA
310
FAFAFAFAFAFAFAFAFAFAFAFAFAFAFAFAFAFAFAFAFAFAFAFAFAFAFAFAFAFAFAFAFAFAFAFAFAFAFAFAFAFAFAFAFAFAFAFAFAFAFAFAFAFAFAFAFAFAFAFAFAFAFAFAFAFAFAFAFAFAFAFAFAFAFAFAFAFAFAFAFAFAFAFAFAFAFAFAFAFAFAFAFAFAFAFAFAFAFAFAFAFAFAFAFAFAFAFAFAFAFAFAFAFAFAFAFAFAFAFAFAFAFAFAFAFAFA
310
FAFAFAFAFAFAFAFAFAFAFAFAFAFAFAFAFAFAFAFAFAFAFAFAFAFAFAFAFAFAFAFAFAFAFAFAFAFAFAFAFAFAFAFAFAFAFAFAFAFAFAFAFAFAFAFAFAFAFAFAFAFAFAFAFAFAFAFAFAFAFAFAFAFAFAFAFAFAFAFAFAFAFAFAFAFAFAFAFAFAFAFAFAFAFAFAFAFAFAFAFAFAFAFAFAFAFAFAFAFAFAFAFAFAFAFAFAFAFAFAFAFAFAFAFAFAFA
310
FAFAFAFAFAFAFAFAFAFAFAFAFAFAFAFAFAFAFAFAFAFAFAFAFAFAFAFAFAFAFAFAFAFAFAFAFAFAFAFAFAFAFAFAFAFAFAFAFAFAFAFAFAFAFAFAFAFAFAFAFAFAFAFAFAFAFAFAFAFAFAFAFAFAFAFAFAFAFAFAFAFAFAFAFAFAFAFAFAFAFAFAFAFAFAFAFAFAFAFAFAFAFAFAFAFAFAFAFAFAFAFAFAFAFAFAFAFAFAFAFAFAFAFAFAFAFA
310
FAFAFAFAFAFAFAFAFAFAFAFAFAFAFAFAFAFAFAFAFAFAFAFAFAFAFAFAFAFAFAFAFAFAFAFAFAFAFAFAFAFAFAFAFAFAFAFAFAFAFAFAFAFAFAFAFAFAFAFAFAFAFAFAFAFAFAFAFAFAFAFAFAFAFAFAFAFAFAFAFAFAFAFAFAFAFAFAFAFAFAFAFAFAFAFAFAFAFAFAFAFAFAFAFAFAFAFAFAFAFAFAFAFAFAFAFAFAFAFAFAFAFAFAFAFAFA
310
FAFAFAFAFAFAFAFAFAFAFAFAFAFAFAFAFAFAFAFAFAFAFAFAFAFAFAFAFAFAFAFAFAFAFAFAFAFAFAFAFAFAFAFAFAFAFAFAFAFAFAFAFAFAFAFAFAFAFAFAFAFAFAFAFAFAFAFAFAFAFAFAFAFAFAFAFAFAFAFAFAFAFAFAFAFAFAFAFAFAFAFAFAFAFAFAFAFAFAFAFAFAFAFAFAFAFAFAFAFAFAFAFAFAFAFAFAFAFAFAFAFAFAFAFAFAFA
310
FAFAFAFAFAFAFAFAFAFAFAFAFAFAFAFAFAFAFAFAFAFAFAFAFAFAFAFAFAFAFAFAFAFAFAFAFAFAFAFAFAFAFAFAFAFAFAFAFAFAFAFAFAFAFAFAFAFAFAFAFAFAFAFAFAFAFAFAFAFAFAFAFAFAFAFAFAFAFAFAFAFAFAFAFAFAFAFAFAFAFAFAFAFAFAFAFAFAFAFAFAFAFAFAFAFAFAFAFAFAFAFAFAFAFAFAFAFAFAFAFAFAFAFAFAFAFA
310
FAFAFAFAFAFAFAFAFAFAFAFAFAFAFAFAFAFAFAFAFAFAFAFAFAFAFAFAFAFAFAFAFAFAFAFAFAFAFAFAFAFAFAFAFAFAFAFAFAFAFAFAFAFAFAFAFAFAFAFAFAFAFAFAFAFAFAFAFAFAFAFAFAFAFAFAFAFAFAFAFAFAFAFAFAFAFAFAFAFAFAFAFAFAFAFAFAFAFAFAFAFAFAFAFAFAFAFAFAFAFAFAFAFAFAFAFAFAFAFAFAFAFAFAFAFAFA
310
FAFAFAFAFAFAFAFAFAFAFAFAFAFAFAFAFAFAFAFAFAFAFAFAFAFAFAFAFAFAFAFAFAFAFAFAFAFAFAFAFAFAFAFAFAFAFAFAFAFAFAFAFAFAFAFAFAFAFAFAFAFAFAFAFAFAFAFAFAFAFAFAFAFAFAFAFAFAFAFAFAFAFAFAFAFAFAFAFAFAFAFAFAFAFAFAFAFAFAFAFAFAFAFAFAFAFAFAFAFAFAFAFAFAFAFAFAFAFAFAFAFAFAFAFAFAFA
310
FAFAFAFAFAFAFAFAFAFAFAFAFAFAFAFAFAFAFAFAFAFAFAFAFAFAFAFAFAFAFAFAFAFAFAFAFAFAFAFAFAFAFAFAFAFAFAFAFAFAFAFAFAFAFAFAFAFAFAFAFAFAFAFAFAFAFAFAFAFAFAFAFAFAFAFAFAFAFAFAFAFAFAFAFAFAFAFAFAFAFAFAFAFAFAFAFAFAFAFAFAFAFAFAFAFAFAFAFAFAFAFAFAFAFAFAFAFAFAFAFAFAFAFAFAFAFA
310
FAFAFAFAFAFAFAFAFAFAFAFAFAFAFAFAFAFAFAFAFAFAFAFAFAFAFAFAFAFAFAFAFAFAFAFAFAFAFAFAFAFAFAFAFAFAFAFAFAFAFAFAFAFAFAFAFAFAFAFAFAFAFAFAFAFAFAFAFAFAFAFAFAFAFAFAFAFAFAFAFAFAFAFAFAFAFAFAFAFAFAFAFAFAFAFAFAFAFAFAFAFAFAFAFAFAFAFAFAFAFAFAFAFAFAFAFAFAFAFAFAFAFAFAFAFAFA
310
FAFAFAFAFAFAFAFAFAFAFAFAFAFAFAFAFAFAFAFAFAFAFAFAFAFAFAFAFAFAFAFAFAFAFAFAFAFAFAFAFAFAFAFAFAFAFAFAFAFAFAFAFAFAFAFAFAFAFAFAFAFAFAFAFAFAFAFAFAFAFAFAFAFAFAFAFAFAFAFAFAFAFAFAFAFAFAFAFAFAFAFAFAFAFAFAFAFAFAFAFAFAFAFAFAFAFAFAFAFAFAFAFAFAFAFAFAFAFAFAFAFAFAFAFAFAFA
310
FAFAFAFAFAFAFAFAFAFAFAFAFAFAFAFAFAFAFAFAFAFAFAFAFAFAFAFAFAFAFAFAFAFAFAFAFAFAFAFAFAFAFAFAFAFAFAFAFAFAFAFAFAFAFAFAFAFAFAFAFAFAFAFAFAFAFAFAFAFAFAFAFAFAFAFAFAFAFAFAFAFAFAFAFAFAFAFAFAFAFAFAFAFAFAFAFAFAFAFAFAFAFAFAFAFAFAFAFAFAFAFAFAFAFAFAFAFAFAFAFAFAFAFAFAFAFA
310
FAFAFAFAFAFAFAFAFAFAFAFAFAFAFAFAFAFAFAFAFAFAFAFAFAFAFAFAFAFAFAFAFAFAFAFAFAFAFAFAFAFAFAFAFAFAFAFAFAFAFAFAFAFAFAFAFAFAFAFAFAFAFAFAFAFAFAFAFAFAFAFAFAFAFAFAFAFAFAFAFAFAFAFAFAFAFAFAFAFAFAFAFAFAFAFAFAFAFAFAFAFAFAFAFAFAFAFAFAFAFAFAFAFAFAFAFAFAFAFAFAFAFAFAFAFAFA
310
FAFAFAFAFAFAFAFAFAFAFAFAFAFAFAFAFAFAFAFAFAFAFAFAFAFAFAFAFAFAFAFAFAFAFAFAFAFAFAFAFAFAFAFAFAFAFAFAFAFAFAFAFAFAFAFAFAFAFAFAFAFAFAFAFAFAFAFAFAFAFAFAFAFAFAFAFAFAFAFAFAFAFAFAFAFAFAFAFAFAFAFAFAFAFAFAFAFAFAFAFAFAFAFAFAFAFAFAFAFAFAFAFAFAFAFAFAFAFAFAFAFAFAFAFAFAFA
310
FAFAFAFAFAFAFAFAFAFAFAFAFAFAFAFAFAFAFAFAFAFAFAFAFAFAFAFAFAFAFAFAFAFAFAFAFAFAFAFAFAFAFAFAFAFAFAFAFAFAFAFAFAFAFAFAFAFAFAFAFAFAFAFAFAFAFAFAFAFAFAFAFAFAFAFAFAFAFAFAFAFAFAFAFAFAFAFAFAFAFAFAFAFAFAFAFAFAFAFAFAFAFAFAFAFAFAFA
  0
ENDSEC
  0
EOF
