  0
SECTION
  2
HEADER
  9
$ACADVER
  1
AC1032
  9
$ACADMAINTVER
 90
      155
  9
$DWGCODEPAGE
  3
ANSI_932
  9
$LASTSAVEDBY
  1
olympia
  9
$REQUIREDVERSIONS
160
                 0
  9
$INSBASE
 10
0.0
 20
0.0
 30
0.0
  9
$EXTMIN
 10
10.16135499139288
 20
-13.37478563542273
 30
0.0
  9
$EXTMAX
 10
173.2462213479518
 20
104.0636864623765
 30
0.0
  9
$LIMMIN
 10
0.0
 20
0.0
  9
$LIMMAX
 10
12.0
 20
9.0
  9
$ORTHOMODE
 70
     0
  9
$REGENMODE
 70
     1
  9
$FILLMODE
 70
     1
  9
$QTEXTMODE
 70
     0
  9
$MIRRTEXT
 70
     1
  9
$LTSCALE
 40
1.0
  9
$ATTMODE
 70
     1
  9
$TEXTSIZE
 40
0.2
  9
$TRACEWID
 40
0.05
  9
$TEXTSTYLE
  7
Standard
  9
$CLAYER
  8
0
  9
$CELTYPE
  6
ByLayer
  9
$CECOLOR
 62
   256
  9
$CELTSCALE
 40
1.0
  9
$DISPSILH
 70
     0
  9
$DIMSCALE
 40
1.0
  9
$DIMASZ
 40
0.18
  9
$DIMEXO
 40
0.0625
  9
$DIMDLI
 40
0.38
  9
$DIMRND
 40
0.0
  9
$DIMDLE
 40
0.0
  9
$DIMEXE
 40
0.18
  9
$DIMTP
 40
0.0
  9
$DIMTM
 40
0.0
  9
$DIMTXT
 40
0.18
  9
$DIMCEN
 40
0.09
  9
$DIMTSZ
 40
0.0
  9
$DIMTOL
 70
     0
  9
$DIMLIM
 70
     0
  9
$DIMTIH
 70
     1
  9
$DIMTOH
 70
     1
  9
$DIMSE1
 70
     0
  9
$DIMSE2
 70
     0
  9
$DIMTAD
 70
     0
  9
$DIMZIN
 70
     0
  9
$DIMTOFFSET
 70
     1
  9
$DIMBLK
  1

  9
$DIMASO
 70
     1
  9
$DIMSHO
 70
     1
  9
$DIMPOST
  1

  9
$DIMAPOST
  1

  9
$DIMALT
 70
     0
  9
$DIMALTD
 70
     2
  9
$DIMALTF
 40
25.4
  9
$DIMLFAC
 40
1.0
  9
$DIMTOFL
 70
     0
  9
$DIMTVP
 40
0.0
  9
$DIMTIX
 70
     0
  9
$DIMSOXD
 70
     0
  9
$DIMSAH
 70
     0
  9
$DIMBLK1
  1

  9
$DIMBLK2
  1

  9
$DIMSTYLE
  2
Standard
  9
$DIMCLRD
 70
     0
  9
$DIMCLRE
 70
     0
  9
$DIMCLRT
 70
     0
  9
$DIMTFAC
 40
1.0
  9
$DIMGAP
 40
0.09
  9
$DIMJUST
 70
     0
  9
$DIMSD1
 70
     0
  9
$DIMSD2
 70
     0
  9
$DIMTOLJ
 70
     1
  9
$DIMTZIN
 70
     0
  9
$DIMALTZ
 70
     0
  9
$DIMALTTZ
 70
     0
  9
$DIMUPT
 70
     0
  9
$DIMDEC
 70
     4
  9
$DIMTDEC
 70
     4
  9
$DIMALTU
 70
     2
  9
$DIMALTTD
 70
     2
  9
$DIMTXSTY
  7
Standard
  9
$DIMAUNIT
 70
     0
  9
$DIMADEC
 70
     0
  9
$DIMALTRND
 40
0.0
  9
$DIMAZIN
 70
     0
  9
$DIMDSEP
 70
    46
  9
$DIMATFIT
 70
     3
  9
$DIMFRAC
 70
     0
  9
$DIMLDRBLK
  1

  9
$DIMLUNIT
 70
     2
  9
$DIMLWD
 70
    -2
  9
$DIMLWE
 70
    -2
  9
$DIMTMOVE
 70
     0
  9
$DIMFXL
 40
1.0
  9
$DIMFXLON
 70
     0
  9
$DIMJOGANG
 40
0.7853981633974483
  9
$DIMTFILL
 70
     0
  9
$DIMTFILLCLR
 70
     0
  9
$DIMARCSYM
 70
     0
  9
$DIMLTYPE
  6

  9
$DIMLTEX1
  6

  9
$DIMLTEX2
  6

  9
$DIMTXTDIRECTION
 70
     0
  9
$LUNITS
 70
     2
  9
$LUPREC
 70
     4
  9
$SKETCHINC
 40
0.1
  9
$FILLETRAD
 40
0.5
  9
$AUNITS
 70
     0
  9
$AUPREC
 70
     0
  9
$MENU
  1
.
  9
$ELEVATION
 40
0.0
  9
$PELEVATION
 40
0.0
  9
$THICKNESS
 40
0.0
  9
$LIMCHECK
 70
     0
  9
$CHAMFERA
 40
0.5
  9
$CHAMFERB
 40
0.5
  9
$CHAMFERC
 40
1.0
  9
$CHAMFERD
 40
0.0
  9
$SKPOLY
 70
     0
  9
$TDCREATE
 40
2459097.375891169
  9
$TDUCREATE
 40
2459097.000891169
  9
$TDUPDATE
 40
2460399.838848206
  9
$TDUUPDATE
 40
2460399.463848206
  9
$TDINDWG
 40
0.086125
  9
$TDUSRTIMER
 40
0.086124838
  9
$USRTIMER
 70
     1
  9
$ANGBASE
 50
0.0
  9
$ANGDIR
 70
     0
  9
$PDMODE
 70
     0
  9
$PDSIZE
 40
0.0
  9
$PLINEWID
 40
0.0
  9
$SPLFRAME
 70
     0
  9
$SPLINETYPE
 70
     6
  9
$SPLINESEGS
 70
     8
  9
$HANDSEED
  5
273E
  9
$SURFTAB1
 70
     6
  9
$SURFTAB2
 70
     6
  9
$SURFTYPE
 70
     6
  9
$SURFU
 70
     6
  9
$SURFV
 70
     6
  9
$UCSBASE
  2

  9
$UCSNAME
  2

  9
$UCSORG
 10
0.0
 20
0.0
 30
0.0
  9
$UCSXDIR
 10
1.0
 20
0.0
 30
0.0
  9
$UCSYDIR
 10
0.0
 20
1.0
 30
0.0
  9
$UCSORTHOREF
  2

  9
$UCSORTHOVIEW
 70
     0
  9
$UCSORGTOP
 10
0.0
 20
0.0
 30
0.0
  9
$UCSORGBOTTOM
 10
0.0
 20
0.0
 30
0.0
  9
$UCSORGLEFT
 10
0.0
 20
0.0
 30
0.0
  9
$UCSORGRIGHT
 10
0.0
 20
0.0
 30
0.0
  9
$UCSORGFRONT
 10
0.0
 20
0.0
 30
0.0
  9
$UCSORGBACK
 10
0.0
 20
0.0
 30
0.0
  9
$PUCSBASE
  2

  9
$PUCSNAME
  2

  9
$PUCSORG
 10
0.0
 20
0.0
 30
0.0
  9
$PUCSXDIR
 10
1.0
 20
0.0
 30
0.0
  9
$PUCSYDIR
 10
0.0
 20
1.0
 30
0.0
  9
$PUCSORTHOREF
  2

  9
$PUCSORTHOVIEW
 70
     0
  9
$PUCSORGTOP
 10
0.0
 20
0.0
 30
0.0
  9
$PUCSORGBOTTOM
 10
0.0
 20
0.0
 30
0.0
  9
$PUCSORGLEFT
 10
0.0
 20
0.0
 30
0.0
  9
$PUCSORGRIGHT
 10
0.0
 20
0.0
 30
0.0
  9
$PUCSORGFRONT
 10
0.0
 20
0.0
 30
0.0
  9
$PUCSORGBACK
 10
0.0
 20
0.0
 30
0.0
  9
$USERI1
 70
     0
  9
$USERI2
 70
     0
  9
$USERI3
 70
     0
  9
$USERI4
 70
     0
  9
$USERI5
 70
     0
  9
$USERR1
 40
0.0
  9
$USERR2
 40
0.0
  9
$USERR3
 40
0.0
  9
$USERR4
 40
0.0
  9
$USERR5
 40
0.0
  9
$WORLDVIEW
 70
     1
  9
$SHADEDGE
 70
     3
  9
$SHADEDIF
 70
    70
  9
$TILEMODE
 70
     1
  9
$MAXACTVP
 70
    64
  9
$PINSBASE
 10
0.0
 20
0.0
 30
0.0
  9
$PLIMCHECK
 70
     0
  9
$PEXTMIN
 10
1.000000000000000E+20
 20
1.000000000000000E+20
 30
1.000000000000000E+20
  9
$PEXTMAX
 10
-1.000000000000000E+20
 20
-1.000000000000000E+20
 30
-1.000000000000000E+20
  9
$PLIMMIN
 10
0.0
 20
0.0
  9
$PLIMMAX
 10
12.0
 20
9.0
  9
$UNITMODE
 70
     0
  9
$VISRETAIN
 70
     1
  9
$PLINEGEN
 70
     0
  9
$PSLTSCALE
 70
     1
  9
$TREEDEPTH
 70
  3020
  9
$CMLSTYLE
  2
Standard
  9
$CMLJUST
 70
     0
  9
$CMLSCALE
 40
1.0
  9
$PROXYGRAPHICS
 70
     1
  9
$MEASUREMENT
 70
     0
  9
$CELWEIGHT
370
    -1
  9
$ENDCAPS
280
     0
  9
$JOINSTYLE
280
     0
  9
$LWDISPLAY
290
     1
  9
$INSUNITS
 70
     1
  9
$HYPERLINKBASE
  1

  9
$STYLESHEET
  1

  9
$XEDIT
290
     1
  9
$CEPSNTYPE
380
     0
  9
$PSTYLEMODE
290
     1
  9
$FINGERPRINTGUID
  2
{B7A8AC39-4BDE-4DE2-BF8A-FF6DF516E268}
  9
$VERSIONGUID
  2
{FAEB1C32-E019-11D5-929B-00C0DF256EC4}
  9
$EXTNAMES
290
     1
  9
$PSVPSCALE
 40
0.0
  9
$OLESTARTUP
290
     0
  9
$SORTENTS
280
   127
  9
$INDEXCTL
280
     0
  9
$HIDETEXT
280
     1
  9
$XCLIPFRAME
280
     2
  9
$HALOGAP
280
     0
  9
$OBSCOLOR
 70
   257
  9
$OBSLTYPE
280
     0
  9
$INTERSECTIONDISPLAY
280
     0
  9
$INTERSECTIONCOLOR
 70
   257
  9
$DIMASSOC
280
     2
  9
$PROJECTNAME
  1

  9
$CAMERADISPLAY
290
     0
  9
$LENSLENGTH
 40
50.0
  9
$CAMERAHEIGHT
 40
0.0
  9
$STEPSPERSEC
 40
2.0
  9
$STEPSIZE
 40
6.0
  9
$3DDWFPREC
 40
2.0
  9
$PSOLWIDTH
 40
0.25
  9
$PSOLHEIGHT
 40
4.0
  9
$LOFTANG1
 40
1.570796326794897
  9
$LOFTANG2
 40
1.570796326794897
  9
$LOFTMAG1
 40
0.0
  9
$LOFTMAG2
 40
0.0
  9
$LOFTPARAM
 70
     7
  9
$LOFTNORMALS
280
     1
  9
$LATITUDE
 40
37.795
  9
$LONGITUDE
 40
-122.394
  9
$NORTHDIRECTION
 40
0.0
  9
$TIMEZONE
 70
 -8000
  9
$LIGHTGLYPHDISPLAY
280
     1
  9
$TILEMODELIGHTSYNCH
280
     1
  9
$CMATERIAL
347
1DC0
  9
$SOLIDHIST
280
     1
  9
$SHOWHIST
280
     1
  9
$DWFFRAME
280
     2
  9
$DGNFRAME
280
     0
  9
$REALWORLDSCALE
290
     1
  9
$INTERFERECOLOR
 62
   256
  9
$INTERFEREOBJVS
345
33
  9
$INTERFEREVPVS
346
1DC3
  9
$CSHADOW
280
     0
  9
$SHADOWPLANELOCATION
 40
0.0
  0
ENDSEC
  0
SECTION
  2
CLASSES
  0
CLASS
  1
ACDBDICTIONARYWDFLT
  2
AcDbDictionaryWithDefault
  3
ObjectDBX Classes
 90
        0
 91
        1
280
     0
281
     0
  0
CLASS
  1
VISUALSTYLE
  2
AcDbVisualStyle
  3
ObjectDBX Classes
 90
     4095
 91
        1
280
     0
281
     0
  0
CLASS
  1
ACDBPLACEHOLDER
  2
AcDbPlaceHolder
  3
ObjectDBX Classes
 90
        0
 91
        1
280
     0
281
     0
  0
CLASS
  1
LAYOUT
  2
AcDbLayout
  3
ObjectDBX Classes
 90
        0
 91
        1
280
     0
281
     0
  0
CLASS
  1
SCALE
  2
AcDbScale
  3
ObjectDBX Classes
 90
     1153
 91
        1
280
     0
281
     0
  0
CLASS
  1
MATERIAL
  2
AcDbMaterial
  3
ObjectDBX Classes
 90
     1153
 91
        1
280
     0
281
     0
  0
CLASS
  1
TABLESTYLE
  2
AcDbTableStyle
  3
ObjectDBX Classes
 90
     4095
 91
        1
280
     0
281
     0
  0
CLASS
  1
MLEADERSTYLE
  2
AcDbMLeaderStyle
  3
ACDB_MLEADERSTYLE_CLASS
 90
     4095
 91
        1
280
     0
281
     0
  0
CLASS
  1
DICTIONARYVAR
  2
AcDbDictionaryVar
  3
ObjectDBX Classes
 90
        0
 91
        1
280
     0
281
     0
  0
CLASS
  1
SORTENTSTABLE
  2
AcDbSortentsTable
  3
ObjectDBX Classes
 90
        0
 91
        1
280
     0
281
     0
  0
CLASS
  1
SUN
  2
AcDbSun
  3
SCENEOE
 90
     1153
 91
        1
280
     0
281
     0
  0
CLASS
  1
CELLSTYLEMAP
  2
AcDbCellStyleMap
  3
ObjectDBX Classes
 90
     1152
 91
        1
280
     0
281
     0
  0
ENDSEC
  0
SECTION
  2
TABLES
  0
TABLE
  2
VPORT
  5
8
330
0
100
AcDbSymbolTable
 70
     1
  0
VPORT
  5
29
330
8
100
AcDbSymbolTableRecord
100
AcDbViewportTableRecord
  2
*Active
 70
     0
 10
0.0
 20
0.0
 11
1.0
 21
1.0
 12
-245.3826144171206
 22
-88.04445378011363
 13
0.0
 23
0.0
 14
0.5
 24
0.5
 15
0.5
 25
0.5
 16
0.0
 26
0.0
 36
1.0
 17
420.0000310907466
 27
148.5000657452101
 37
0.0
 40
218.1017733508355
 41
2.575675675675676
 42
50.0
 43
0.0
 44
0.0
 50
0.0
 51
0.0
 71
     0
 72
   100
 73
     1
 74
     3
 75
     0
 76
     0
 77
     0
 78
     0
281
     0
 65
     1
110
0.0
120
0.0
130
0.0
111
1.0
121
0.0
131
0.0
112
0.0
122
1.0
132
0.0
 79
     0
146
0.0
348
2F
 60
     3
 61
     5
292
     1
282
     1
141
0.0
142
0.0
 63
   250
361
2519
  0
ENDTAB
  0
TABLE
  2
LTYPE
  5
5
330
0
100
AcDbSymbolTable
 70
     1
  0
LTYPE
  5
14
330
5
100
AcDbSymbolTableRecord
100
AcDbLinetypeTableRecord
  2
ByBlock
 70
     0
  3

 72
    65
 73
     0
 40
0.0
  0
LTYPE
  5
15
330
5
100
AcDbSymbolTableRecord
100
AcDbLinetypeTableRecord
  2
ByLayer
 70
     0
  3

 72
    65
 73
     0
 40
0.0
  0
LTYPE
  5
16
330
5
100
AcDbSymbolTableRecord
100
AcDbLinetypeTableRecord
  2
Continuous
 70
     0
  3
Solid line
 72
    65
 73
     0
 40
0.0
  0
ENDTAB
  0
TABLE
  2
LAYER
  5
2
102
{ACAD_XDICTIONARY
360
263B
102
}
330
0
100
AcDbSymbolTable
 70
     5
  0
LAYER
  5
10
330
2
100
AcDbSymbolTableRecord
100
AcDbLayerTableRecord
  2
0
 70
     0
 62
     7
  6
Continuous
370
    -3
390
F
347
1DC2
348
0
  0
LAYER
  5
3B
330
2
100
AcDbSymbolTableRecord
100
AcDbLayerTableRecord
  2
レイヤー 1
 70
     0
 62
     7
  6
Continuous
370
    -3
390
F
347
1DC2
348
0
  0
LAYER
  5
1FCE
330
2
100
AcDbSymbolTableRecord
100
AcDbLayerTableRecord
  2
寸法線
 70
     0
 62
     7
  6
Continuous
370
    20
390
F
347
1DC2
348
0
1001
AcadStringInfo
1000
MIFCodePage
1070
     1
  0
LAYER
  5
1FD4
102
{ACAD_XDICTIONARY
360
1FD5
102
}
330
2
100
AcDbSymbolTableRecord
100
AcDbLayerTableRecord
  2
SIZE
 70
     0
 62
     9
  6
Continuous
370
    20
390
F
347
1DC2
348
0
  0
LAYER
  5
251B
330
2
100
AcDbSymbolTableRecord
100
AcDbLayerTableRecord
  2
B4
 70
     0
 62
     3
  6
Continuous
370
    -3
390
F
347
1DC2
348
0
  0
ENDTAB
  0
TABLE
  2
STYLE
  5
3
330
0
100
AcDbSymbolTable
 70
     2
  0
STYLE
  5
11
330
3
100
AcDbSymbolTableRecord
100
AcDbTextStyleTableRecord
  2
Standard
 70
     0
 40
0.0
 41
1.0
 50
0.0
 71
     0
 42
0.2
  3
txt
  4

  0
STYLE
  5
1DDF
330
3
100
AcDbSymbolTableRecord
100
AcDbTextStyleTableRecord
  2
KANJI
 70
     0
 40
0.0
 41
1.0
 50
0.0
 71
     0
 42
4.0
  3
TXT
  4
BIGFONT
  0
ENDTAB
  0
TABLE
  2
VIEW
  5
6
330
0
100
AcDbSymbolTable
 70
     0
  0
ENDTAB
  0
TABLE
  2
UCS
  5
7
330
0
100
AcDbSymbolTable
 70
     0
  0
ENDTAB
  0
TABLE
  2
APPID
  5
9
330
0
100
AcDbSymbolTable
 70
    11
  0
APPID
  5
12
330
9
100
AcDbSymbolTableRecord
100
AcDbRegAppTableRecord
  2
ACAD
 70
     0
  0
APPID
  5
1DD0
330
9
100
AcDbSymbolTableRecord
100
AcDbRegAppTableRecord
  2
ACAD_MLEADERVER
 70
     0
  0
APPID
  5
1E05
330
9
100
AcDbSymbolTableRecord
100
AcDbRegAppTableRecord
  2
AcadStringInfo
 70
     0
  0
APPID
  5
1E06
330
9
100
AcDbSymbolTableRecord
100
AcDbRegAppTableRecord
  2
ACAD_NAV_VCDISPLAY
 70
     0
  0
APPID
  5
1E07
330
9
100
AcDbSymbolTableRecord
100
AcDbRegAppTableRecord
  2
ACAD_PSEXT
 70
     0
  0
APPID
  5
1FDA
330
9
100
AcDbSymbolTableRecord
100
AcDbRegAppTableRecord
  2
PLOTTRANSPARENCY
 70
     0
  0
APPID
  5
206C
330
9
100
AcDbSymbolTableRecord
100
AcDbRegAppTableRecord
  2
AcAecLayerStandard
 70
     0
  0
APPID
  5
206D
330
9
100
AcDbSymbolTableRecord
100
AcDbRegAppTableRecord
  2
ACCMTRANSPARENCY
 70
     0
  0
APPID
  5
2119
330
9
100
AcDbSymbolTableRecord
100
AcDbRegAppTableRecord
  2
ACAD_SPLINE_DATA
 70
     0
  0
APPID
  5
211A
330
9
100
AcDbSymbolTableRecord
100
AcDbRegAppTableRecord
  2
ACAD_SPLINE_DATA2
 70
     0
  0
APPID
  5
2205
330
9
100
AcDbSymbolTableRecord
100
AcDbRegAppTableRecord
  2
AcadAnnotative
 70
     0
  0
ENDTAB
  0
TABLE
  2
DIMSTYLE
  5
A
330
0
100
AcDbSymbolTable
 70
     3
100
AcDbDimStyleTable
  0
DIMSTYLE
105
27
330
A
100
AcDbSymbolTableRecord
100
AcDbDimStyleTableRecord
  2
Standard
 70
     0
178
     0
340
11
  0
DIMSTYLE
105
1E04
330
A
100
AcDbSymbolTableRecord
100
AcDbDimStyleTableRecord
  2
S １：１
 70
     0
 41
3.0
 42
0.5
 43
8.0
 44
1.0
 73
     0
 74
     0
 77
     3
 78
     8
 79
     2
140
3.5
141
5.0
143
0.03937007874016
147
1.0
171
     3
172
     1
178
     0
179
     1
271
     1
272
     1
274
     3
283
     0
284
     8
340
11
1001
AcadStringInfo
1000
MIFCodePage
1070
     1
  0
DIMSTYLE
105
1FD7
330
A
100
AcDbSymbolTableRecord
100
AcDbDimStyleTableRecord
  2
ISO-25
 70
     0
 41
2.5
 42
0.625
 43
3.75
 44
1.25
 73
     0
 74
     0
 77
     1
 78
     8
140
2.5
141
2.5
143
0.03937007874016
147
0.625
171
     3
172
     1
178
     0
271
     2
272
     2
274
     3
283
     0
284
     8
340
11
  0
ENDTAB
  0
TABLE
  2
BLOCK_RECORD
  5
1
330
0
100
AcDbSymbolTable
 70
     1
  0
BLOCK_RECORD
  5
1F
330
1
100
AcDbSymbolTableRecord
100
AcDbBlockTableRecord
  2
*Model_Space
340
22
 70
     0
280
     1
281
     0
  0
BLOCK_RECORD
  5
1B
330
1
100
AcDbSymbolTableRecord
100
AcDbBlockTableRecord
  2
*Paper_Space
340
1E
 70
     0
280
     1
281
     0
  0
BLOCK_RECORD
  5
23
330
1
100
AcDbSymbolTableRecord
100
AcDbBlockTableRecord
  2
*Paper_Space0
340
26
 70
     0
280
     1
281
     0
  0
ENDTAB
  0
ENDSEC
  0
SECTION
  2
BLOCKS
  0
BLOCK
  5
20
330
1F
100
AcDbEntity
  8
0
100
AcDbBlockBegin
  2
*Model_Space
 70
     0
 10
0.0
 20
0.0
 30
0.0
  3
*Model_Space
  1

  0
ENDBLK
  5
21
330
1F
100
AcDbEntity
  8
0
100
AcDbBlockEnd
  0
BLOCK
  5
1C
330
1B
100
AcDbEntity
 67
     1
  8
0
100
AcDbBlockBegin
  2
*Paper_Space
 70
     0
 10
0.0
 20
0.0
 30
0.0
  3
*Paper_Space
  1

  0
ENDBLK
  5
1D
330
1B
100
AcDbEntity
 67
     1
  8
0
100
AcDbBlockEnd
  0
BLOCK
  5
24
330
23
100
AcDbEntity
  8
0
100
AcDbBlockBegin
  2
*Paper_Space0
 70
     0
 10
0.0
 20
0.0
 30
0.0
  3
*Paper_Space0
  1

  0
ENDBLK
  5
25
330
23
100
AcDbEntity
  8
0
100
AcDbBlockEnd
  0
ENDSEC
  0
SECTION
  2
ENTITIES
  0
MTEXT
  5
2518
330
1F
100
AcDbEntity
  8
0
100
AcDbMText
 10
76.81323165723019
 20
81.79073297037921
 30
0.0
 40
4.0
 41
169.8946080541571
 46
60.57866405312139
 71
     1
 72
     5
  1
{\fHGMaruGothicMPRO|b0|i0|c128|p50;●MPN052G\P●器具サイズ：幅φ151×高さ158ｍｍ\P●全長：1231ｍｍ\P●質量：0.5ｋｇ\P●コード調整具付属\P●ランプ別売（E26）\P●適合ランプ\P　60W相当LED電球　8Wまで\P　60W相当電球型蛍光灯　12Wまで}
  7
KANJI
 73
     1
 44
1.0
1001
AcadAnnotative
1000
AnnotativeData
1002
{
1070
     1
1070
     0
1002
}
  0
LINE
  5
2640
330
1F
100
AcDbEntity
  8
0
100
AcDbLine
 10
25.40211394035896
 20
85.40535197377292
 30
0.0
 11
25.40211393990785
 21
33.65867940082242
 31
0.0
  0
LINE
  5
2641
330
1F
100
AcDbEntity
  8
0
100
AcDbLine
 10
26.53328194035885
 20
85.40535197377292
 30
0.0
 11
26.53328194014966
 21
33.65867971624428
 31
0.0
  0
ELLIPSE
  5
2664
330
1F
100
AcDbEntity
  8
0
100
AcDbEllipse
 10
25.9676979403589
 20
101.9789899737728
 30
0.0
 11
-8.157398051345371
 21
0.0
 31
0.0
210
0.0
220
0.0
230
1.0
 40
0.255559
 41
3.117836582357699
 42
6.306941378411681
  0
ELLIPSE
  5
2665
330
1F
100
AcDbEntity
  8
0
100
AcDbEllipse
 10
25.9676979403589
 20
87.68285997377305
 30
0.0
 11
-5.438265367563582
 21
0.0
 31
0.0
210
0.0
220
0.0
230
1.0
 40
0.255559
 41
2.975355480018092
 42
6.449422480751287
  0
LINE
  5
2666
330
1F
100
AcDbEntity
  8
0
100
AcDbLine
 10
20.5294319403597
 20
87.68285997377305
 30
0.0
 11
17.81260194036031
 21
101.929471973773
 31
0.0
  0
LINE
  5
2667
330
1F
100
AcDbEntity
  8
0
100
AcDbLine
 10
31.40596394035992
 20
87.68285997377305
 30
0.0
 11
34.12279394035932
 21
101.929471973773
 31
0.0
  0
LINE
  5
2668
330
1F
100
AcDbEntity
  8
0
100
AcDbLine
 10
20.60440194035937
 20
87.45288597377274
 30
0.0
 11
21.19247794035937
 21
86.92924397377263
 31
0.0
  0
LINE
  5
2669
330
1F
100
AcDbEntity
  8
0
100
AcDbLine
 10
31.33099394036026
 20
87.45288597377274
 30
0.0
 11
30.74291794036026
 21
86.92924397377263
 31
0.0
  0
ELLIPSE
  5
266A
330
1F
100
AcDbEntity
  8
0
100
AcDbEllipse
 10
25.9676979403589
 20
86.86413797377261
 30
0.0
 11
-0.9544155720074086
 21
0.0
 31
0.0
210
0.0
220
0.0
230
1.0
 40
0.255559
 41
3.141592653589793
 42
6.283185307179586
  0
ELLIPSE
  5
266B
330
1F
100
AcDbEntity
  8
0
100
AcDbEllipse
 10
25.9676979403589
 20
85.74131997377279
 30
0.0
 11
-0.9544155720074086
 21
0.0
 31
0.0
210
0.0
220
0.0
230
1.0
 40
0.255559
 41
3.141592653589793
 42
6.283185307179586
  0
LINE
  5
266C
330
1F
100
AcDbEntity
  8
0
100
AcDbLine
 10
25.01328194036023
 20
86.86413797377261
 30
0.0
 11
25.01328194036023
 21
85.74131997377279
 31
0.0
  0
LINE
  5
266D
330
1F
100
AcDbEntity
  8
0
100
AcDbLine
 10
26.9221139403594
 20
86.86413797377261
 30
0.0
 11
26.9221139403594
 21
85.74131997377279
 31
0.0
  0
LINE
  5
266E
330
1F
100
AcDbEntity
  8
0
370
    20
100
AcDbLine
 10
25.97277194035951
 20
85.98522597377294
 30
0.0
 11
25.97277194035951
 21
87.10804397377277
 31
0.0
  0
LINE
  5
266F
330
1F
100
AcDbEntity
  8
0
370
    20
100
AcDbLine
 10
25.75545794035997
 20
85.97912197377289
 30
0.0
 11
25.75545794035997
 21
87.10193997377272
 31
0.0
  0
LINE
  5
2670
330
1F
100
AcDbEntity
  8
0
370
    20
100
AcDbLine
 10
25.55247594035927
 20
85.96093797377287
 30
0.0
 11
25.55247594035927
 21
87.08375397377293
 31
0.0
  0
LINE
  5
2671
330
1F
100
AcDbEntity
  8
0
370
    20
100
AcDbLine
 10
25.36778194035969
 20
85.93102197377291
 30
0.0
 11
25.36778194035969
 21
87.05383997377274
 31
0.0
  0
LINE
  5
2672
330
1F
100
AcDbEntity
  8
0
370
    20
100
AcDbLine
 10
25.20496594035967
 20
85.887937973773
 30
0.0
 11
25.20496594035967
 21
87.01075597377283
 31
0.0
  0
LINE
  5
2673
330
1F
100
AcDbEntity
  8
0
370
    20
100
AcDbLine
 10
25.06719994035984
 20
85.82213997377292
 30
0.0
 11
25.06719994035984
 21
86.94495797377274
 31
0.0
  0
LINE
  5
2674
330
1F
100
AcDbEntity
  8
0
370
    20
100
AcDbLine
 10
26.17993794035965
 20
85.97912197377289
 30
0.0
 11
26.17993794035965
 21
87.10193997377272
 31
0.0
  0
LINE
  5
2675
330
1F
100
AcDbEntity
  8
0
370
    20
100
AcDbLine
 10
26.38291794035968
 20
85.96093797377287
 30
0.0
 11
26.38291794035968
 21
87.08375397377293
 31
0.0
  0
LINE
  5
2676
330
1F
100
AcDbEntity
  8
0
370
    20
100
AcDbLine
 10
26.56761394035993
 20
85.93102197377291
 30
0.0
 11
26.56761394035993
 21
87.05383997377274
 31
0.0
  0
LINE
  5
2677
330
1F
100
AcDbEntity
  8
0
370
    20
100
AcDbLine
 10
26.73042994035995
 20
85.887937973773
 30
0.0
 11
26.73042994035995
 21
87.01075597377283
 31
0.0
  0
LINE
  5
2678
330
1F
100
AcDbEntity
  8
0
370
    20
100
AcDbLine
 10
26.86819594035978
 20
85.82213997377292
 30
0.0
 11
26.86819594035978
 21
86.94495797377274
 31
0.0
  0
ELLIPSE
  5
268C
330
1F
100
AcDbEntity
  8
0
100
AcDbEllipse
 10
25.9676979403589
 20
87.20363397377312
 30
0.0
 11
-4.894438830807246
 21
0.0
 31
0.0
210
0.0
220
0.0
230
1.0
 40
0.255559
 41
1.76705377695862
 42
7.657724183810851
  0
LINE
  5
268D
330
1F
100
AcDbEntity
  8
0
100
AcDbLine
 10
26.00989194036038
 20
87.73113997377303
 30
0.0
 11
24.83685594036024
 21
87.59840597377277
 31
0.0
  0
LINE
  5
268E
330
1F
100
AcDbEntity
  8
0
100
AcDbLine
 10
24.83685594036024
 20
87.59840597377277
 30
0.0
 11
24.55709794035965
 21
87.2880039737727
 31
0.0
  0
LINE
  5
268F
330
1F
100
AcDbEntity
  8
0
100
AcDbLine
 10
26.00989194036038
 20
87.73113997377303
 30
0.0
 11
27.18337994035892
 21
87.60245997377277
 31
0.0
  0
LINE
  5
2690
330
1F
100
AcDbEntity
  8
0
100
AcDbLine
 10
27.18337994035892
 20
87.60245997377277
 30
0.0
 11
27.46420794035976
 21
87.29302597377298
 31
0.0
  0
LINE
  5
2691
330
1F
100
AcDbEntity
  8
0
370
    20
100
AcDbLine
 10
26.00989194036038
 20
87.28968397377301
 30
0.0
 11
24.83685594036024
 21
87.15694997377275
 31
0.0
  0
LINE
  5
2692
330
1F
100
AcDbEntity
  8
0
370
    20
100
AcDbLine
 10
24.83685594036024
 20
87.15694997377275
 30
0.0
 11
24.55709794035965
 21
86.84654797377314
 31
0.0
  0
LINE
  5
2693
330
1F
100
AcDbEntity
  8
0
100
AcDbLine
 10
24.55709794035965
 20
86.84654797377314
 30
0.0
 11
25.01328194036023
 21
86.76370597377289
 31
0.0
  0
LINE
  5
2694
330
1F
100
AcDbEntity
  8
0
370
    20
100
AcDbLine
 10
26.00989194036038
 20
87.28968397377301
 30
0.0
 11
27.18337994035892
 21
87.16100197377298
 31
0.0
  0
LINE
  5
2695
330
1F
100
AcDbEntity
  8
0
370
    20
100
AcDbLine
 10
27.18337994035892
 20
87.16100197377298
 30
0.0
 11
27.46420794035976
 21
86.85156797377275
 31
0.0
  0
LINE
  5
2696
330
1F
100
AcDbEntity
  8
0
100
AcDbLine
 10
27.46420794035976
 20
86.85156797377275
 30
0.0
 11
26.9221139403594
 21
86.75118997377265
 31
0.0
  0
LINE
  5
2697
330
1F
100
AcDbEntity
  8
0
100
AcDbLine
 10
24.55709794035965
 20
87.2880039737727
 30
0.0
 11
24.55709794035965
 21
86.84654797377314
 31
0.0
  0
LINE
  5
2698
330
1F
100
AcDbEntity
  8
0
370
    20
100
AcDbLine
 10
24.83685594036024
 20
87.59840597377277
 30
0.0
 11
24.83685594036024
 21
87.15694997377275
 31
0.0
  0
LINE
  5
2699
330
1F
100
AcDbEntity
  8
0
370
    20
100
AcDbLine
 10
26.00989194036038
 20
87.73113997377303
 30
0.0
 11
26.00989194036038
 21
87.28968397377301
 31
0.0
  0
LINE
  5
269A
330
1F
100
AcDbEntity
  8
0
370
    20
100
AcDbLine
 10
27.18337994035892
 20
87.60245997377277
 30
0.0
 11
27.18337994035892
 21
87.16100197377298
 31
0.0
  0
LINE
  5
269B
330
1F
100
AcDbEntity
  8
0
100
AcDbLine
 10
27.46420794035976
 20
87.29302597377298
 30
0.0
 11
27.46420794035976
 21
86.85156797377275
 31
0.0
  0
ELLIPSE
  5
269C
330
1F
100
AcDbEntity
  8
0
100
AcDbEllipse
 10
25.9676979403589
 20
85.74131997377279
 30
0.0
 11
-0.9544155720074086
 21
0.0
 31
0.0
210
0.0
220
0.0
230
1.0
 40
0.639299
 41
0.0
 42
0.9365179887338829
  0
ELLIPSE
  5
269D
330
1F
100
AcDbEntity
  8
0
100
AcDbEllipse
 10
25.9676979403589
 20
85.74131997377279
 30
0.0
 11
-0.9544155720074086
 21
0.0
 31
0.0
210
0.0
220
0.0
230
1.0
 40
0.639299
 41
2.20507466485591
 42
3.141592653589793
  0
ELLIPSE
  5
269E
330
1F
100
AcDbEntity
  8
0
100
AcDbEllipse
 10
25.9676979403589
 20
85.40535197377292
 30
0.0
 11
-0.5655832037699609
 21
0.0
 31
0.0
210
0.0
220
0.0
230
1.0
 40
0.345114
 41
3.141592653589793
 42
6.283185307179586
  0
LINE
  5
26A2
330
1F
100
AcDbEntity
  8
0
100
AcDbLine
 10
24.56769873646181
 20
30.5582199739122
 30
0.0
 11
24.56769873646181
 21
29.85728809268292
 31
0.0
  0
LINE
  5
26A3
330
1F
100
AcDbEntity
  8
0
100
AcDbLine
 10
22.68769873645897
 20
24.58025410734152
 30
0.0
 11
22.68769873645897
 21
27.0945693466322
 31
0.0
  0
LINE
  5
26A4
330
1F
100
AcDbEntity
  8
0
100
AcDbLine
 10
27.36769873643925
 20
30.55821997391448
 30
0.0
 11
27.36769873643925
 21
29.85728809269111
 31
0.0
  0
LINE
  5
26A5
330
1F
100
AcDbEntity
  8
0
100
AcDbLine
 10
29.24769873645027
 20
24.58025410734015
 30
0.0
 11
29.24769873644664
 21
27.09456934663766
 31
0.0
  0
ELLIPSE
  5
26A6
330
1F
100
AcDbEntity
  8
0
100
AcDbEllipse
 10
25.96769873645962
 20
23.23564442910882
 30
0.0
 11
-4.741127794332811
 21
-3.746733913640093E-12
 31
0.0
210
0.0
220
0.0
230
1.0
 40
0.113692730872016
 41
3.141592653589792
 42
6.283185307179586
  0
ELLIPSE
  5
26A7
330
1F
100
AcDbEntity
  8
0
100
AcDbEllipse
 10
25.96769873645871
 20
21.48792312799722
 30
0.0
 11
-3.999999999998545
 21
-3.137756721116603E-12
 31
0.0
210
0.0
220
0.0
230
1.0
 40
0.1225442556151163
 41
2.568079549167127
 42
3.874354723581442
  0
ELLIPSE
  5
26A8
330
1F
100
AcDbEntity
  8
0
100
AcDbEllipse
 10
25.96769873645871
 20
21.48792312799722
 30
0.0
 11
-3.999999999998545
 21
-3.137756721116603E-12
 31
0.0
210
0.0
220
0.0
230
1.0
 40
0.1225442556151163
 41
4.137384007673248
 42
4.604837019749351
  0
ELLIPSE
  5
26A9
330
1F
100
AcDbEntity
  8
0
100
AcDbEllipse
 10
25.96769873645871
 20
21.48792312799722
 30
0.0
 11
-3.999999999998545
 21
-3.137756721116603E-12
 31
0.0
210
0.0
220
0.0
230
1.0
 40
0.1225442556151163
 41
4.819940941019915
 42
5.287393953101382
  0
ELLIPSE
  5
26AA
330
1F
100
AcDbEntity
  8
0
100
AcDbEllipse
 10
25.96769873645871
 20
21.48792312799722
 30
0.0
 11
-3.999999999998545
 21
-3.137756721116603E-12
 31
0.0
210
0.0
220
0.0
230
1.0
 40
0.1225442556151163
 41
5.550423237194506
 42
6.856698411601919
  0
ELLIPSE
  5
26AB
330
1F
100
AcDbEntity
  8
0
100
AcDbEllipse
 10
25.96769873645781
 20
19.8829112860565
 30
0.0
 11
-3.360000000000036
 21
0.0
 31
0.0
210
0.0
220
0.0
230
1.0
 40
0.1098801970854208
 41
0.8933562359530598
 42
1.442654580765906
  0
ELLIPSE
  5
26AC
330
1F
100
AcDbEntity
  8
0
100
AcDbEllipse
 10
25.96769873645781
 20
19.8829112860565
 30
0.0
 11
-3.360000000000036
 21
0.0
 31
0.0
210
0.0
220
0.0
230
1.0
 40
0.1098801970854208
 41
1.698938072823946
 42
2.248236417630427
  0
ELLIPSE
  5
26AD
330
1F
100
AcDbEntity
  8
0
100
AcDbEllipse
 10
25.96769873645781
 20
19.8829112860565
 30
0.0
 11
-3.360000000000036
 21
0.0
 31
0.0
210
0.0
220
0.0
230
1.0
 40
0.1098801970854208
 41
2.617940843738349
 42
3.658260052188244
  0
ELLIPSE
  5
26AE
330
1F
100
AcDbEntity
  8
0
100
AcDbEllipse
 10
25.96769873645781
 20
19.8829112860565
 30
0.0
 11
-3.360000000000036
 21
0.0
 31
0.0
210
0.0
220
0.0
230
1.0
 40
0.1098801970854208
 41
4.027969283680775
 42
4.584247234355505
  0
ELLIPSE
  5
26AF
330
1F
100
AcDbEntity
  8
0
100
AcDbEllipse
 10
25.96769873645781
 20
19.8829112860565
 30
0.0
 11
-3.360000000000036
 21
0.0
 31
0.0
210
0.0
220
0.0
230
1.0
 40
0.1098801970854208
 41
4.840530726413546
 42
5.396808677094908
  0
ELLIPSE
  5
26B0
330
1F
100
AcDbEntity
  8
0
100
AcDbEllipse
 10
25.96769873645781
 20
19.8829112860565
 30
0.0
 11
-3.360000000000036
 21
0.0
 31
0.0
210
0.0
220
0.0
230
1.0
 40
0.1098801970854208
 41
5.766517908591031
 42
6.806837117021259
  0
ELLIPSE
  5
26B1
330
1F
100
AcDbEntity
  8
0
100
AcDbEllipse
 10
25.96769873645781
 20
19.8829112860565
 30
0.0
 11
-2.688000000000029
 21
0.0
 31
0.0
210
0.0
220
0.0
230
1.0
 40
0.1098801970854208
 41
0.6685106535765671
 42
1.410369889607459
  0
ELLIPSE
  5
26B2
330
1F
100
AcDbEntity
  8
0
100
AcDbEllipse
 10
25.96769873645781
 20
19.8829112860565
 30
0.0
 11
-2.688000000000029
 21
0.0
 31
0.0
210
0.0
220
0.0
230
1.0
 40
0.1098801970854208
 41
1.731222763982335
 42
2.473082000003259
  0
ELLIPSE
  5
26B3
330
1F
100
AcDbEntity
  8
0
100
AcDbEllipse
 10
25.96769873645781
 20
19.8829112860565
 30
0.0
 11
-2.688000000000029
 21
0.0
 31
0.0
210
0.0
220
0.0
230
1.0
 40
0.1098801970854208
 41
3.803110071010523
 42
4.551962543197085
  0
ELLIPSE
  5
26B4
330
1F
100
AcDbEntity
  8
0
100
AcDbEllipse
 10
25.96769873645781
 20
19.8829112860565
 30
0.0
 11
-2.688000000000029
 21
0.0
 31
0.0
210
0.0
220
0.0
230
1.0
 40
0.1098801970854208
 41
4.87281541757196
 42
5.621667889768824
  0
LINE
  5
26B5
330
1F
100
AcDbEntity
  8
0
100
AcDbLine
 10
29.32769873645839
 20
21.55010597762183
 30
0.0
 11
29.32769873645839
 21
19.8829112860565
 31
0.0
  0
LINE
  5
26B6
330
1F
100
AcDbEntity
  8
0
100
AcDbLine
 10
22.60769873645813
 20
19.8829112860565
 30
0.0
 11
22.60769873645813
 21
21.55010597762183
 31
0.0
  0
ELLIPSE
  5
26B7
330
1F
100
AcDbEntity
  8
0
100
AcDbEllipse
 10
25.96769873645781
 20
21.55010597762183
 30
0.0
 11
-3.360000000000036
 21
0.0
 31
0.0
210
0.0
220
0.0
230
1.0
 40
0.1098801970854208
 41
3.141592653589792
 42
3.62775859883145
  0
ELLIPSE
  5
26B8
330
1F
100
AcDbEntity
  8
0
100
AcDbEllipse
 10
25.96769873645781
 20
21.55010597762183
 30
0.0
 11
-3.360000000000036
 21
0.0
 31
0.0
210
0.0
220
0.0
230
1.0
 40
0.1098801970854208
 41
4.008930063649135
 42
4.584247234355372
  0
ELLIPSE
  5
26B9
330
1F
100
AcDbEntity
  8
0
100
AcDbEllipse
 10
25.96769873645781
 20
21.55010597762183
 30
0.0
 11
-3.360000000000036
 21
0.0
 31
0.0
210
0.0
220
0.0
230
1.0
 40
0.1098801970854208
 41
4.840530726413412
 42
5.415847897126546
  0
ELLIPSE
  5
26BA
330
1F
100
AcDbEntity
  8
0
100
AcDbEllipse
 10
25.96769873645781
 20
21.55010597762183
 30
0.0
 11
-3.360000000000036
 21
0.0
 31
0.0
210
0.0
220
0.0
230
1.0
 40
0.1098801970854208
 41
5.797019361948308
 42
6.283185307179586
  0
ELLIPSE
  5
26BB
330
1F
100
AcDbEntity
  8
0
100
AcDbEllipse
 10
25.96769873645053
 20
30.55821997391357
 30
0.0
 11
-1.399999999988495
 21
-1.136868377216160E-12
 31
0.0
210
0.0
220
0.0
230
1.0
 40
0.2012477597153355
 41
3.141592653589993
 42
6.283185307179586
  0
ELLIPSE
  5
26BC
330
1F
100
AcDbEntity
  8
0
100
AcDbEllipse
 10
25.96769873644962
 20
31.95637847998321
 30
0.0
 11
-1.119999999990796
 21
-9.094947017729282E-13
 31
0.0
210
0.0
220
0.0
230
1.0
 40
0.2012477597153355
 41
3.141592653589993
 42
6.283185307179586
  0
LINE
  5
26BD
330
1F
100
AcDbEntity
  8
0
100
AcDbLine
 10
24.84769873645882
 20
31.95637847998231
 30
0.0
 11
24.98110430060069
 21
30.75811800899854
 31
0.0
  0
LINE
  5
26BE
330
1F
100
AcDbEntity
  8
0
100
AcDbLine
 10
27.08769873644042
 20
31.95637847998231
 30
0.0
 11
26.95429317229855
 21
30.75811800899854
 31
0.0
  0
ELLIPSE
  5
26BF
330
1F
100
AcDbEntity
  8
0
100
AcDbEllipse
 10
25.96769873644962
 20
32.25339352252175
 30
0.0
 11
-1.119999999990796
 21
-9.094947017729282E-13
 31
0.0
210
0.0
220
0.0
230
1.0
 40
0.2012477597153355
 41
3.141592653589993
 42
6.283185307179586
  0
ELLIPSE
  5
26C0
330
1F
100
AcDbEntity
  8
0
100
AcDbEllipse
 10
25.96769873644962
 20
33.54300223092085
 30
0.0
 11
-0.806399999993373
 21
-6.548361852765084E-13
 31
0.0
210
0.0
220
0.0
230
1.0
 40
0.2012477597153355
 41
3.141592653589993
 42
6.283185307179586
  0
LINE
  5
26C1
330
1F
100
AcDbEntity
  8
0
100
AcDbLine
 10
26.77409873644274
 20
33.54300223092176
 30
0.0
 11
26.96334759677711
 21
32.35661682121398
 31
0.0
  0
LINE
  5
26C2
330
1F
100
AcDbEntity
  8
0
100
AcDbLine
 10
25.1612987364565
 20
33.54300223092039
 30
0.0
 11
24.97256826405965
 21
32.35681907986717
 31
0.0
  0
LINE
  5
26C3
330
1F
100
AcDbEntity
  8
0
100
AcDbLine
 10
24.84769873645882
 20
32.25339352252084
 30
0.0
 11
24.84769873645882
 21
31.95637847998231
 31
0.0
  0
LINE
  5
26C4
330
1F
100
AcDbEntity
  8
0
100
AcDbLine
 10
27.08769873644042
 20
32.25339352252266
 30
0.0
 11
27.08769873644042
 21
31.95637847998458
 31
0.0
  0
ARC
  5
26C5
330
1F
100
AcDbEntity
  8
0
100
AcDbCircle
 10
25.96769873645871
 20
26.96966096616987
 30
0.0
 40
3.281228526403238
100
AcDbArc
 50
358.4320753361138
 51
181.5679246561967
  0
SPLINE
  5
26C6
330
1F
100
AcDbEntity
  8
0
100
AcDbSpline
210
0.0
220
0.0
230
1.0
 70
  1064
 71
     3
 72
    10
 73
     6
 74
     4
 42
0.000000001
 43
0.0000000001
 44
0.0000000001
 12
0.01150897869232926
 22
0.9999337695114964
 32
0.0
 13
0.8566279395085987
 23
0.5159346598681123
 33
0.0
 40
0.0
 40
0.0
 40
0.0
 40
0.0
 40
0.9451935299286024
 40
1.616131544370081
 40
1.955142153165497
 40
1.955142153165497
 40
1.955142153165497
 40
1.955142153165497
 10
29.92785260858136
 20
21.55693864596586
 30
0.0
 10
29.93147867931339
 20
21.87198228906565
 30
0.0
 10
29.93803959559368
 20
22.428349554665
 30
0.0
 10
30.32203919682797
 20
23.00246344008422
 30
0.0
 10
30.61202454436453
 20
23.17734198806561
 30
0.0
 10
30.70882653079252
 20
23.23564442911245
 30
0.0
 11
29.92785260858136
 21
21.55693864596586
 31
0.0
 11
30.04548066373105
 21
22.49478428873475
 31
0.0
 11
30.42766913758486
 21
23.04622765815358
 31
0.0
 11
30.70882653079252
 21
23.23564442911245
 31
0.0
  0
SPLINE
  5
26C7
330
1F
100
AcDbEntity
  8
0
100
AcDbSpline
210
0.0
220
0.0
230
1.0
 70
  1064
 71
     3
 72
    10
 73
     6
 74
     4
 42
0.000000001
 43
0.0000000001
 44
0.0000000001
 12
-0.01150897869232947
 22
0.9999337695114923
 32
0.0
 13
-0.8566279395123384
 23
0.5159346598619717
 33
0.0
 40
0.0
 40
0.0
 40
0.0
 40
0.0
 40
0.945193529928585
 40
1.616131544368844
 40
1.955142153165816
 40
1.955142153165816
 40
1.955142153165816
 40
1.955142153165816
 10
22.00754486433516
 20
21.55693864596586
 30
0.0
 10
22.00391879360313
 20
21.87198228906565
 30
0.0
 10
21.99735787732153
 20
22.42834955466387
 30
0.0
 10
21.61335827609024
 20
23.00246344008517
 30
0.0
 10
21.32337292855286
 20
23.17734198806603
 30
0.0
 10
21.226570942124
 20
23.23564442911245
 30
0.0
 11
22.00754486433516
 21
21.55693864596586
 31
0.0
 11
21.88991680918517
 21
22.49478428873469
 31
0.0
 11
21.50772833533355
 21
23.04622765815354
 31
0.0
 11
21.226570942124
 21
23.23564442911245
 31
0.0
  0
ELLIPSE
  5
26C8
330
1F
100
AcDbEntity
  8
0
100
AcDbEllipse
 10
25.96769873645053
 20
22.90978430840622
 30
0.0
 11
-7.176484781001201
 21
0.0
 31
0.0
210
0.0
220
0.0
230
1.0
 40
0.261703349577958
 41
2.058044175490966
 42
2.302999136029771
  0
ELLIPSE
  5
26C9
330
1F
100
AcDbEntity
  8
0
100
AcDbEllipse
 10
25.96769873645053
 20
22.90978430840622
 30
0.0
 11
-7.176484781001201
 21
0.0
 31
0.0
210
0.0
220
0.0
230
1.0
 40
0.261703349577958
 41
2.450164847381363
 42
2.717071566020639
  0
ELLIPSE
  5
26CA
330
1F
100
AcDbEntity
  8
0
100
AcDbEllipse
 10
25.96769873645053
 20
22.90978430840622
 30
0.0
 11
-7.176484781001201
 21
0.0
 31
0.0
210
0.0
220
0.0
230
1.0
 40
0.261703349577958
 41
3.141592653589793
 42
6.283185307179586
  0
ELLIPSE
  5
26CB
330
1F
100
AcDbEntity
  8
0
100
AcDbEllipse
 10
25.96769873645053
 20
22.90978430840622
 30
0.0
 11
-7.176484781001201
 21
0.0
 31
0.0
210
0.0
220
0.0
230
1.0
 40
0.261703349577958
 41
0.440386428135365
 42
0.6914278062080369
  0
ELLIPSE
  5
26CC
330
1F
100
AcDbEntity
  8
0
100
AcDbEllipse
 10
25.96769873645053
 20
22.90978430840622
 30
0.0
 11
-7.176484781001201
 21
0.0
 31
0.0
210
0.0
220
0.0
230
1.0
 40
0.261703349577958
 41
0.838593517559846
 42
1.083548478101409
  0
ELLIPSE
  5
26CD
330
1F
100
AcDbEntity
  8
0
100
AcDbEllipse
 10
25.96769873644962
 20
-10.2520891559486
 30
0.0
 11
-11.48237564960192
 21
0.0
 31
0.0
210
0.0
220
0.0
230
1.0
 40
0.261703349577958
 41
0.0
 42
6.283185307179586
  0
ELLIPSE
  5
26CE
330
1F
100
AcDbEntity
  8
0
100
AcDbEllipse
 10
25.96769873645053
 20
-1.721680716982718
 30
0.0
 11
-14.3529695620024
 21
0.0
 31
0.0
210
0.0
220
0.0
230
1.0
 40
0.261703349577958
 41
4.742309129796247
 42
5.204613447191301
  0
ELLIPSE
  5
26CF
330
1F
100
AcDbEntity
  8
0
100
AcDbEllipse
 10
25.96769873645053
 20
-1.721680716982718
 30
0.0
 11
-14.3529695620024
 21
0.0
 31
0.0
210
0.0
220
0.0
230
1.0
 40
0.261703349577958
 41
5.272879576184227
 42
5.665083512786732
  0
ELLIPSE
  5
26D0
330
1F
100
AcDbEntity
  8
0
100
AcDbEllipse
 10
25.96769873645053
 20
-1.721680716982718
 30
0.0
 11
-14.3529695620024
 21
0.0
 31
0.0
210
0.0
220
0.0
230
1.0
 40
0.261703349577958
 41
5.766196370451545
 42
6.87449901371936
  0
ELLIPSE
  5
26D1
330
1F
100
AcDbEntity
  8
0
100
AcDbEllipse
 10
25.96769873645053
 20
-1.721680716982718
 30
0.0
 11
-14.3529695620024
 21
0.0
 31
0.0
210
0.0
220
0.0
230
1.0
 40
0.261703349577958
 41
0.6919520099903753
 42
1.084605189265397
  0
ELLIPSE
  5
26D2
330
1F
100
AcDbEntity
  8
0
100
AcDbEllipse
 10
25.96769873645053
 20
-1.721680716982718
 30
0.0
 11
-14.3529695620024
 21
0.0
 31
0.0
210
0.0
220
0.0
230
1.0
 40
0.261703349577958
 41
1.152334084237342
 42
1.540876177383181
  0
ELLIPSE
  5
26D3
330
1F
100
AcDbEntity
  8
0
100
AcDbEllipse
 10
25.96769873645053
 20
-1.721680716982718
 30
0.0
 11
-14.3529695620024
 21
0.0
 31
0.0
210
0.0
220
0.0
230
1.0
 40
0.261703349577958
 41
1.600716476206612
 42
1.98925856935238
  0
ELLIPSE
  5
26D4
330
1F
100
AcDbEntity
  8
0
100
AcDbEllipse
 10
25.96769873645053
 20
-1.721680716982718
 30
0.0
 11
-14.3529695620024
 21
0.0
 31
0.0
210
0.0
220
0.0
230
1.0
 40
0.261703349577958
 41
2.056987464324326
 42
2.4496406435993
  0
ELLIPSE
  5
26D5
330
1F
100
AcDbEntity
  8
0
100
AcDbEllipse
 10
25.96769873645053
 20
-1.721680716982718
 30
0.0
 11
-14.3529695620024
 21
0.0
 31
0.0
210
0.0
220
0.0
230
1.0
 40
0.261703349577958
 41
2.550278947049896
 42
3.658581590317969
  0
ELLIPSE
  5
26D6
330
1F
100
AcDbEntity
  8
0
100
AcDbEllipse
 10
25.96769873645053
 20
-1.721680716982718
 30
0.0
 11
-14.3529695620024
 21
0.0
 31
0.0
210
0.0
220
0.0
230
1.0
 40
0.261703349577958
 41
3.759694447982768
 42
4.151898384585227
  0
ELLIPSE
  5
26D7
330
1F
100
AcDbEntity
  8
0
100
AcDbEllipse
 10
25.96769873645053
 20
-1.721680716982718
 30
0.0
 11
-14.3529695620024
 21
0.0
 31
0.0
210
0.0
220
0.0
230
1.0
 40
0.261703349577958
 41
4.220164513578155
 42
4.682468830972816
  0
ELLIPSE
  5
26D8
330
1F
100
AcDbEntity
  8
0
100
AcDbEllipse
 10
25.96769873644962
 20
6.727923975972573
 30
0.0
 11
-9.300724276177554
 21
0.0
 31
0.0
210
0.0
220
0.0
230
1.0
 40
0.261703349577958
 41
4.325818988952128
 42
4.666206384265479
  0
ELLIPSE
  5
26D9
330
1F
100
AcDbEntity
  8
0
100
AcDbEllipse
 10
25.96769873644962
 20
6.727923975972573
 30
0.0
 11
-9.300724276177554
 21
0.0
 31
0.0
210
0.0
220
0.0
230
1.0
 40
0.261703349577958
 41
4.758571576502824
 42
5.098958971817251
  0
ELLIPSE
  5
26DA
330
1F
100
AcDbEntity
  8
0
100
AcDbEllipse
 10
25.96769873644962
 20
6.727923975972573
 30
0.0
 11
-9.300724276177554
 21
0.0
 31
0.0
210
0.0
220
0.0
230
1.0
 40
0.261703349577958
 41
5.201956016188713
 42
5.634564673596502
  0
ELLIPSE
  5
26DB
330
1F
100
AcDbEntity
  8
0
100
AcDbEllipse
 10
25.96769873644962
 20
6.727923975972573
 30
0.0
 11
-9.300724276177554
 21
0.0
 31
0.0
210
0.0
220
0.0
230
1.0
 40
0.261703349577958
 41
5.820659041899654
 42
6.488019949802498
  0
ELLIPSE
  5
26DC
330
1F
100
AcDbEntity
  8
0
100
AcDbEllipse
 10
25.96769873644962
 20
6.727923975972573
 30
0.0
 11
-9.300724276177554
 21
0.0
 31
0.0
210
0.0
220
0.0
230
1.0
 40
0.261703349577958
 41
0.401548912752992
 42
0.8649344429831152
  0
ELLIPSE
  5
26DD
330
1F
100
AcDbEntity
  8
0
100
AcDbEllipse
 10
25.96769873644962
 20
6.727923975972573
 30
0.0
 11
-9.300724276177554
 21
0.0
 31
0.0
210
0.0
220
0.0
230
1.0
 40
0.261703349577958
 41
0.9768535355465925
 42
1.524613730676615
  0
ELLIPSE
  5
26DE
330
1F
100
AcDbEntity
  8
0
100
AcDbEllipse
 10
25.96769873644962
 20
6.727923975972573
 30
0.0
 11
-9.300724276177554
 21
0.0
 31
0.0
210
0.0
220
0.0
230
1.0
 40
0.261703349577958
 41
1.616978922913962
 42
2.1647391180432
  0
ELLIPSE
  5
26DF
330
1F
100
AcDbEntity
  8
0
100
AcDbEllipse
 10
25.96769873644962
 20
6.727923975972573
 30
0.0
 11
-9.300724276177554
 21
0.0
 31
0.0
210
0.0
220
0.0
230
1.0
 40
0.261703349577958
 41
2.276658210606679
 42
2.740043740836799
  0
ELLIPSE
  5
26E0
330
1F
100
AcDbEntity
  8
0
100
AcDbEllipse
 10
25.96769873644962
 20
6.727923975972573
 30
0.0
 11
-9.300724276177554
 21
0.0
 31
0.0
210
0.0
220
0.0
230
1.0
 40
0.261703349577958
 41
2.936758010966881
 42
3.604118918869724
  0
ELLIPSE
  5
26E1
330
1F
100
AcDbEntity
  8
0
100
AcDbEllipse
 10
25.96769873644962
 20
6.727923975972573
 30
0.0
 11
-9.300724276177554
 21
0.0
 31
0.0
210
0.0
220
0.0
230
1.0
 40
0.261703349577958
 41
3.790213287172856
 42
4.222821944580664
  0
ELLIPSE
  5
26E2
330
1F
100
AcDbEntity
  8
0
100
AcDbEllipse
 10
25.96769873645053
 20
13.31459664976163
 30
0.0
 11
-7.176484781001201
 21
0.0
 31
0.0
210
0.0
220
0.0
230
1.0
 40
0.261703349577958
 41
5.145279419303586
 42
5.528237481883064
  0
ELLIPSE
  5
26E3
330
1F
100
AcDbEntity
  8
0
100
AcDbEllipse
 10
25.96769873645053
 20
13.31459664976163
 30
0.0
 11
-7.176484781001201
 21
0.0
 31
0.0
210
0.0
220
0.0
230
1.0
 40
0.261703349577958
 41
5.70693317834442
 42
6.70190473153666
  0
ELLIPSE
  5
26E4
330
1F
100
AcDbEntity
  8
0
100
AcDbEllipse
 10
25.96769873645053
 20
13.31459664976163
 30
0.0
 11
-7.176484781001201
 21
0.0
 31
0.0
210
0.0
220
0.0
230
1.0
 40
0.261703349577958
 41
0.6012384039146376
 42
0.8585447087550805
  0
ELLIPSE
  5
26E5
330
1F
100
AcDbEntity
  8
0
100
AcDbEllipse
 10
25.96769873645053
 20
13.31459664976163
 30
0.0
 11
-7.176484781001201
 21
0.0
 31
0.0
210
0.0
220
0.0
230
1.0
 40
0.261703349577958
 41
2.281716955749976
 42
2.540354249674959
  0
ELLIPSE
  5
26E6
330
1F
100
AcDbEntity
  8
0
100
AcDbEllipse
 10
25.96769873645053
 20
13.31459664976163
 30
0.0
 11
-7.176484781001201
 21
0.0
 31
0.0
210
0.0
220
0.0
230
1.0
 40
0.261703349577958
 41
2.722873229232472
 42
3.717844782425174
  0
ELLIPSE
  5
26E7
330
1F
100
AcDbEntity
  8
0
100
AcDbEllipse
 10
25.96769873645053
 20
13.31459664976163
 30
0.0
 11
-7.176484781001201
 21
0.0
 31
0.0
210
0.0
220
0.0
230
1.0
 40
0.261703349577958
 41
3.896540478886509
 42
4.279498541465932
  0
ELLIPSE
  5
26E8
330
1F
100
AcDbEntity
  8
0
100
AcDbEllipse
 10
25.96769873645053
 20
13.31459664976163
 30
0.0
 11
-7.176484781001201
 21
0.0
 31
0.0
210
0.0
220
0.0
230
1.0
 40
0.261703349577958
 41
4.401381727822559
 42
4.652521854538545
  0
ELLIPSE
  5
26E9
330
1F
100
AcDbEntity
  8
0
100
AcDbEllipse
 10
25.96769873645053
 20
13.31459664976163
 30
0.0
 11
-7.176484781001201
 21
0.0
 31
0.0
210
0.0
220
0.0
230
1.0
 40
0.261703349577958
 41
4.772256106229058
 42
5.023396232946957
  0
ELLIPSE
  5
26EA
330
1F
100
AcDbEntity
  8
0
100
AcDbEllipse
 10
25.96769873644962
 20
-10.06931184994821
 30
0.0
 11
-12.63061321456211
 21
0.0
 31
0.0
210
0.0
220
0.0
230
1.0
 40
0.261703349577958
 41
0.0
 42
6.283185307179586
  0
ELLIPSE
  5
26EB
330
1F
100
AcDbEntity
  8
0
100
AcDbEllipse
 10
25.96769873645053
 20
-1.346058695906066
 30
0.0
 11
-15.78826651820264
 21
0.0
 31
0.0
210
0.0
220
0.0
230
1.0
 40
0.261703349577958
 41
4.739588411672094
 42
5.135672508420153
  0
ELLIPSE
  5
26EC
330
1F
100
AcDbEntity
  8
0
100
AcDbEllipse
 10
25.96769873645053
 20
-1.346058695906066
 30
0.0
 11
-15.78826651820264
 21
0.0
 31
0.0
210
0.0
220
0.0
230
1.0
 40
0.261703349577958
 41
5.199956209202602
 42
5.507654124988861
  0
ELLIPSE
  5
26ED
330
1F
100
AcDbEntity
  8
0
100
AcDbEllipse
 10
25.96769873645053
 20
-1.346058695906066
 30
0.0
 11
-15.78826651820264
 21
0.0
 31
0.0
210
0.0
220
0.0
230
1.0
 40
0.261703349577958
 41
5.591212772617888
 42
5.837162668172861
  0
ELLIPSE
  5
26EE
330
1F
100
AcDbEntity
  8
0
100
AcDbEllipse
 10
25.96769873645053
 20
-1.346058695906066
 30
0.0
 11
-15.78826651820264
 21
0.0
 31
0.0
210
0.0
220
0.0
230
1.0
 40
0.261703349577958
 41
6.1638096763857
 42
6.283185307179586
  0
ELLIPSE
  5
26EF
330
1F
100
AcDbEntity
  8
0
100
AcDbEllipse
 10
25.96769873645053
 20
-1.346058695906066
 30
0.0
 11
-15.78826651820264
 21
0.0
 31
0.0
210
0.0
220
0.0
230
1.0
 40
0.261703349577958
 41
0.3133943202166868
 42
0.7251935322036095
  0
ELLIPSE
  5
26F0
330
1F
100
AcDbEntity
  8
0
100
AcDbEllipse
 10
25.96769873645053
 20
-1.346058695906066
 30
0.0
 11
-15.78826651820264
 21
0.0
 31
0.0
210
0.0
220
0.0
230
1.0
 40
0.261703349577958
 41
0.802482379458559
 42
1.133072229258453
  0
ELLIPSE
  5
26F1
330
1F
100
AcDbEntity
  8
0
100
AcDbEllipse
 10
25.96769873645053
 20
-1.346058695906066
 30
0.0
 11
-15.78826651820264
 21
0.0
 31
0.0
210
0.0
220
0.0
230
1.0
 40
0.261703349577958
 41
1.193137748328151
 42
1.543596895507319
  0
ELLIPSE
  5
26F2
330
1F
100
AcDbEntity
  8
0
100
AcDbEllipse
 10
25.96769873645053
 20
-1.346058695906066
 30
0.0
 11
-15.78826651820264
 21
0.0
 31
0.0
210
0.0
220
0.0
230
1.0
 40
0.261703349577958
 41
1.597995758082474
 42
1.948454905261578
  0
ELLIPSE
  5
26F3
330
1F
100
AcDbEntity
  8
0
100
AcDbEllipse
 10
25.96769873645053
 20
-1.346058695906066
 30
0.0
 11
-15.78826651820264
 21
0.0
 31
0.0
210
0.0
220
0.0
230
1.0
 40
0.261703349577958
 41
2.008520424331276
 42
2.339110274131122
  0
ELLIPSE
  5
26F4
330
1F
100
AcDbEntity
  8
0
100
AcDbEllipse
 10
25.96769873645053
 20
-1.346058695906066
 30
0.0
 11
-15.78826651820264
 21
0.0
 31
0.0
210
0.0
220
0.0
230
1.0
 40
0.261703349577958
 41
2.416399121386083
 42
2.828198333372852
  0
ELLIPSE
  5
26F5
330
1F
100
AcDbEntity
  8
0
100
AcDbEllipse
 10
25.96769873645053
 20
-1.346058695906066
 30
0.0
 11
-15.78826651820264
 21
0.0
 31
0.0
210
0.0
220
0.0
230
1.0
 40
0.261703349577958
 41
3.141592653588265
 42
3.260968599516212
  0
ELLIPSE
  5
26F6
330
1F
100
AcDbEntity
  8
0
100
AcDbEllipse
 10
25.96769873645053
 20
-1.346058695906066
 30
0.0
 11
-15.78826651820264
 21
0.0
 31
0.0
210
0.0
220
0.0
230
1.0
 40
0.261703349577958
 41
3.587615292596742
 42
3.833565188151589
  0
ELLIPSE
  5
26F7
330
1F
100
AcDbEntity
  8
0
100
AcDbEllipse
 10
25.96769873645053
 20
-1.346058695906066
 30
0.0
 11
-15.78826651820264
 21
0.0
 31
0.0
210
0.0
220
0.0
230
1.0
 40
0.261703349577958
 41
3.917123835780608
 42
4.224821751566866
  0
ELLIPSE
  5
26F8
330
1F
100
AcDbEntity
  8
0
100
AcDbEllipse
 10
25.96769873645053
 20
-1.346058695906066
 30
0.0
 11
-15.78826651820264
 21
0.0
 31
0.0
210
0.0
220
0.0
230
1.0
 40
0.261703349577958
 41
4.289105452349289
 42
4.685189549096939
  0
ELLIPSE
  5
26F9
330
1F
100
AcDbEntity
  8
0
100
AcDbEllipse
 10
25.96769873644871
 20
7.162743037855108
 30
0.0
 11
-10.23079670379531
 21
0.0
 31
0.0
210
0.0
220
0.0
230
1.0
 40
0.261703349577958
 41
4.383797595998275
 42
4.670407394024481
  0
ELLIPSE
  5
26FA
330
1F
100
AcDbEntity
  8
0
100
AcDbEllipse
 10
25.96769873644871
 20
7.162743037855108
 30
0.0
 11
-10.23079670379531
 21
0.0
 31
0.0
210
0.0
220
0.0
230
1.0
 40
0.261703349577958
 41
4.75437056674383
 42
5.040980364771006
  0
ELLIPSE
  5
26FB
330
1F
100
AcDbEntity
  8
0
100
AcDbEllipse
 10
25.96769873644871
 20
7.162743037855108
 30
0.0
 11
-10.23079670379531
 21
0.0
 31
0.0
210
0.0
220
0.0
230
1.0
 40
0.261703349577958
 41
5.130868984943842
 42
5.474958215093185
  0
ELLIPSE
  5
26FC
330
1F
100
AcDbEntity
  8
0
100
AcDbEllipse
 10
25.96769873644871
 20
7.162743037855108
 30
0.0
 11
-10.23079670379531
 21
0.0
 31
0.0
210
0.0
220
0.0
230
1.0
 40
0.261703349577958
 41
5.595577611107259
 42
5.793354934149074
  0
ELLIPSE
  5
26FD
330
1F
100
AcDbEntity
  8
0
100
AcDbEllipse
 10
25.96769873644871
 20
7.162743037855108
 30
0.0
 11
-10.23079670379531
 21
0.0
 31
0.0
210
0.0
220
0.0
230
1.0
 40
0.261703349577958
 41
6.137628391070796
 42
6.153139381180122
  0
ELLIPSE
  5
26FE
330
1F
100
AcDbEntity
  8
0
100
AcDbEllipse
 10
25.96769873644871
 20
7.162743037855108
 30
0.0
 11
-10.23079670379531
 21
0.0
 31
0.0
210
0.0
220
0.0
230
1.0
 40
0.261703349577958
 41
0.2226910609286855
 42
0.4449194985390663
  0
ELLIPSE
  5
26FF
330
1F
100
AcDbEntity
  8
0
100
AcDbEllipse
 10
25.96769873644871
 20
7.162743037855108
 30
0.0
 11
-10.23079670379531
 21
0.0
 31
0.0
210
0.0
220
0.0
230
1.0
 40
0.261703349577958
 41
0.5726862056466784
 42
0.9479623876621422
  0
ELLIPSE
  5
2700
330
1F
100
AcDbEntity
  8
0
100
AcDbEllipse
 10
25.96769873644871
 20
7.162743037855108
 30
0.0
 11
-10.23079670379531
 21
0.0
 31
0.0
210
0.0
220
0.0
230
1.0
 40
0.261703349577958
 41
1.045677237385936
 42
1.528814740435622
  0
ELLIPSE
  5
2701
330
1F
100
AcDbEntity
  8
0
100
AcDbEllipse
 10
25.96769873644871
 20
7.162743037855108
 30
0.0
 11
-10.23079670379531
 21
0.0
 31
0.0
210
0.0
220
0.0
230
1.0
 40
0.261703349577958
 41
1.612777913154971
 42
2.095915416203917
  0
ELLIPSE
  5
2702
330
1F
100
AcDbEntity
  8
0
100
AcDbEllipse
 10
25.96769873644871
 20
7.162743037855108
 30
0.0
 11
-10.23079670379531
 21
0.0
 31
0.0
210
0.0
220
0.0
230
1.0
 40
0.261703349577958
 41
2.19363026592776
 42
2.568906447943247
  0
ELLIPSE
  5
2703
330
1F
100
AcDbEntity
  8
0
100
AcDbEllipse
 10
25.96769873644871
 20
7.162743037855108
 30
0.0
 11
-10.23079670379531
 21
0.0
 31
0.0
210
0.0
220
0.0
230
1.0
 40
0.261703349577958
 41
2.696673155050879
 42
2.918901592661344
  0
ELLIPSE
  5
2704
330
1F
100
AcDbEntity
  8
0
100
AcDbEllipse
 10
25.96769873644871
 20
7.162743037855108
 30
0.0
 11
-10.23079670379531
 21
0.0
 31
0.0
210
0.0
220
0.0
230
1.0
 40
0.261703349577958
 41
3.271638579603149
 42
3.287143080652632
  0
ELLIPSE
  5
2705
330
1F
100
AcDbEntity
  8
0
100
AcDbEllipse
 10
25.96769873644871
 20
7.162743037855108
 30
0.0
 11
-10.23079670379531
 21
0.0
 31
0.0
210
0.0
220
0.0
230
1.0
 40
0.261703349577958
 41
3.631423026620074
 42
3.829200349661936
  0
ELLIPSE
  5
2706
330
1F
100
AcDbEntity
  8
0
100
AcDbEllipse
 10
25.96769873644871
 20
7.162743037855108
 30
0.0
 11
-10.23079670379531
 21
0.0
 31
0.0
210
0.0
220
0.0
230
1.0
 40
0.261703349577958
 41
3.94981974567607
 42
4.293908975825438
  0
ELLIPSE
  5
2707
330
1F
100
AcDbEntity
  8
0
100
AcDbEllipse
 10
25.96769873645053
 20
13.5221311352432
 30
0.0
 11
-7.894133259101322
 21
0.0
 31
0.0
210
0.0
220
0.0
230
1.0
 40
0.261703349577958
 41
5.097557887215455
 42
5.416391813781368
  0
ELLIPSE
  5
2708
330
1F
100
AcDbEntity
  8
0
100
AcDbEllipse
 10
25.96769873645053
 20
13.5221311352432
 30
0.0
 11
-7.894133259101322
 21
0.0
 31
0.0
210
0.0
220
0.0
230
1.0
 40
0.261703349577958
 41
5.551559115406045
 42
5.821722541998798
  0
ELLIPSE
  5
2709
330
1F
100
AcDbEntity
  8
0
100
AcDbEllipse
 10
25.96769873645053
 20
13.5221311352432
 30
0.0
 11
-7.894133259101322
 21
0.0
 31
0.0
210
0.0
220
0.0
230
1.0
 40
0.261703349577958
 41
0.3297234489666342
 42
0.578532451072379
  0
ELLIPSE
  5
270A
330
1F
100
AcDbEntity
  8
0
100
AcDbEllipse
 10
25.96769873645053
 20
13.5221311352432
 30
0.0
 11
-7.894133259101322
 21
0.0
 31
0.0
210
0.0
220
0.0
230
1.0
 40
0.261703349577958
 41
0.7175335475293295
 42
0.9332936347097245
  0
ELLIPSE
  5
270B
330
1F
100
AcDbEntity
  8
0
100
AcDbEllipse
 10
25.96769873645053
 20
13.5221311352432
 30
0.0
 11
-7.894133259101322
 21
0.0
 31
0.0
210
0.0
220
0.0
230
1.0
 40
0.261703349577958
 41
2.207117097018276
 42
2.424059106060342
  0
ELLIPSE
  5
270C
330
1F
100
AcDbEntity
  8
0
100
AcDbEllipse
 10
25.96769873645053
 20
13.5221311352432
 30
0.0
 11
-7.894133259101322
 21
0.0
 31
0.0
210
0.0
220
0.0
230
1.0
 40
0.261703349577958
 41
2.563060202517236
 42
2.811869204622858
  0
ELLIPSE
  5
270D
330
1F
100
AcDbEntity
  8
0
100
AcDbEllipse
 10
25.96769873645053
 20
13.5221311352432
 30
0.0
 11
-7.894133259101322
 21
0.0
 31
0.0
210
0.0
220
0.0
230
1.0
 40
0.261703349577958
 41
3.205253016276832
 42
3.211412529128331
  0
ELLIPSE
  5
270E
330
1F
100
AcDbEntity
  8
0
100
AcDbEllipse
 10
25.96769873645053
 20
13.5221311352432
 30
0.0
 11
-7.894133259101322
 21
0.0
 31
0.0
210
0.0
220
0.0
230
1.0
 40
0.261703349577958
 41
3.603055418770851
 42
3.873218845363492
  0
ELLIPSE
  5
270F
330
1F
100
AcDbEntity
  8
0
100
AcDbEllipse
 10
25.96769873645053
 20
13.5221311352432
 30
0.0
 11
-7.894133259101322
 21
0.0
 31
0.0
210
0.0
220
0.0
230
1.0
 40
0.261703349577958
 41
4.008386146988167
 42
4.327220073554051
  0
ELLIPSE
  5
2710
330
1F
100
AcDbEntity
  8
0
100
AcDbEllipse
 10
25.96769873645053
 20
13.5221311352432
 30
0.0
 11
-7.894133259101322
 21
0.0
 31
0.0
210
0.0
220
0.0
230
1.0
 40
0.261703349577958
 41
4.435813475726049
 42
4.657969969328632
  0
ELLIPSE
  5
2711
330
1F
100
AcDbEntity
  8
0
100
AcDbEllipse
 10
25.96769873645053
 20
13.5221311352432
 30
0.0
 11
-7.894133259101322
 21
0.0
 31
0.0
210
0.0
220
0.0
230
1.0
 40
0.261703349577958
 41
4.766807991439133
 42
4.988964485043446
  0
ELLIPSE
  5
2712
330
1F
100
AcDbEntity
  8
0
100
AcDbEllipse
 10
25.96769873645053
 20
21.87927489399297
 30
0.0
 11
-7.176484781001201
 21
0.0
 31
0.0
210
0.0
220
0.0
230
1.0
 40
0.261703349577958
 41
1.270672097488628
 42
1.510929200950719
  0
ELLIPSE
  5
2713
330
1F
100
AcDbEntity
  8
0
100
AcDbEllipse
 10
25.96769873645053
 20
21.87927489399297
 30
0.0
 11
-7.176484781001201
 21
0.0
 31
0.0
210
0.0
220
0.0
230
1.0
 40
0.261703349577958
 41
2.058044175490966
 42
2.283807487656206
  0
ELLIPSE
  5
2714
330
1F
100
AcDbEntity
  8
0
100
AcDbEllipse
 10
25.96769873645053
 20
21.87927489399297
 30
0.0
 11
-7.176484781001201
 21
0.0
 31
0.0
210
0.0
220
0.0
230
1.0
 40
0.261703349577958
 41
2.425397367763747
 42
2.697788647078399
  0
ELLIPSE
  5
2715
330
1F
100
AcDbEntity
  8
0
100
AcDbEllipse
 10
25.96769873645053
 20
21.87927489399297
 30
0.0
 11
-7.176484781001201
 21
0.0
 31
0.0
210
0.0
220
0.0
230
1.0
 40
0.261703349577958
 41
2.987927334103081
 42
6.437728695029036
  0
ELLIPSE
  5
2716
330
1F
100
AcDbEntity
  8
0
100
AcDbEllipse
 10
25.96769873645053
 20
21.87927489399297
 30
0.0
 11
-7.176484781001201
 21
0.0
 31
0.0
210
0.0
220
0.0
230
1.0
 40
0.261703349577958
 41
0.445293817260433
 42
0.7161952858257604
  0
ELLIPSE
  5
2717
330
1F
100
AcDbEntity
  8
0
100
AcDbEllipse
 10
25.96769873645053
 20
21.87927489399297
 30
0.0
 11
-7.176484781001201
 21
0.0
 31
0.0
210
0.0
220
0.0
230
1.0
 40
0.261703349577958
 41
0.8577851659334114
 42
1.083548478101409
  0
LINE
  5
2718
330
1F
100
AcDbEntity
  8
0
100
AcDbLine
 10
33.14418351745144
 20
22.90978430840622
 30
0.0
 11
33.14418351745144
 21
21.87927489399297
 31
0.0
  0
LINE
  5
2719
330
1F
100
AcDbEntity
  8
0
100
AcDbLine
 10
18.79121395544871
 20
22.90978430840622
 30
0.0
 11
18.79121395544871
 21
21.87927489399297
 31
0.0
  0
LINE
  5
271A
330
1F
100
AcDbEntity
  8
0
100
AcDbLine
 10
26.39707765912181
 20
-6.763838064473674
 30
0.0
 11
26.39707765913181
 21
23.77467619545976
 31
0.0
  0
LINE
  5
271B
330
1F
100
AcDbEntity
  8
0
100
AcDbLine
 10
25.53831981377743
 20
-6.763838064473674
 30
0.0
 11
25.53831981378744
 21
23.77467619545976
 31
0.0
  0
SPLINE
  5
271C
330
1F
100
AcDbEntity
  8
0
100
AcDbSpline
210
0.0
220
0.0
230
1.0
 70
  1064
 71
     3
 72
    16
 73
    12
 74
    10
 42
0.000000001
 43
0.0000000001
 44
0.0000000001
 12
0.03497510921906113
 22
-0.9993881837079692
 32
0.0
 13
0.2911140649311442
 23
-0.9566883511359729
 33
0.0
 40
0.0
 40
0.0
 40
0.0
 40
0.0
 40
3.65227284618733
 40
8.167978835264964
 40
14.71625130237995
 40
16.77684604581052
 40
21.79493344951501
 40
25.22777670187893
 40
29.60351983319295
 40
32.35138328879695
 40
34.50845469029775
 40
34.50845469029775
 40
34.50845469029775
 40
34.50845469029775
 10
18.871042964352
 20
21.75340245403984
 30
0.0
 10
18.91362251158307
 20
20.53672301198748
 30
0.0
 10
19.00934405430102
 20
17.80155231041475
 30
0.0
 10
18.02672096570339
 20
12.96770491313987
 30
0.0
 10
16.6313790303001
 20
8.786404408953729
 30
0.0
 10
14.27711919942921
 20
4.864339784190987
 30
0.0
 10
12.36877829526762
 20
2.115690686059407
 30
0.0
 10
9.243211595191099
 20
-1.558165378295385
 30
0.0
 10
11.61245582127123
 20
-4.987213552234385
 30
0.0
 10
12.6475818049787
 20
-7.803395251961283
 30
0.0
 10
13.12776758054186
 20
-9.381430155820086
 30
0.0
 10
13.33708552188773
 20
-10.06931184994821
 30
0.0
 11
18.871042964352
 21
21.75340245403984
 31
0.0
 11
18.87104296435104
 21
18.10112960785251
 31
0.0
 11
18.08955612303566
 21
13.65355960878082
 31
0.0
 11
15.82329150316874
 21
7.509951794449278
 31
0.0
 11
14.78280211416861
 21
5.731347699089141
 31
0.0
 11
11.8958538444294
 21
1.626870767850846
 31
0.0
 11
10.17943221824694
 21
-1.34605869590601
 31
0.0
 11
11.67435251856481
 21
-5.458520397483213
 31
0.0
 11
12.69248293389777
 21
-8.010806437099056
 31
0.0
 11
13.33708552188773
 21
-10.06931184994821
 31
0.0
  0
SPLINE
  5
271D
330
1F
100
AcDbEntity
  8
0
100
AcDbSpline
210
0.0
220
0.0
230
1.0
 70
     8
 71
     3
 72
    77
 73
    73
 74
     0
 42
0.000000001
 43
0.0
 40
0.0
 40
0.0
 40
0.0
 40
0.0
 40
0.5036792071641772
 40
0.8842644739078627
 40
1.267069319885508
 40
1.523530803037171
 40
1.781093770107759
 40
2.11380978073782
 40
2.445747834301787
 40
2.77707810999862
 40
3.107874917230746
 40
3.438125592404188
 40
3.767739835429296
 40
4.096559286055395
 40
4.573198444361787
 40
5.050645288441086
 40
5.289619463550655
 40
5.52874426687562
 40
5.768022070901275
 40
6.007465738710653
 40
6.247099196187833
 40
6.486957987884676
 40
6.727089811105727
 40
6.967555022286957
 40
7.208427109369123
 40
7.449793123618561
 40
7.753225492452931
 40
8.12970335869015
 40
8.501520227951383
 40
9.037702699081008
 40
9.572741831460009
 40
9.932094980408571
 40
10.29588573685182
 40
10.66610690191623
 40
11.04476213461397
 40
11.43436175839239
 40
11.68533754572752
 40
11.80656980890013
 40
11.9242415145337
 40
12.03784840182531
 40
12.14694432701425
 40
12.2511762849721
 40
12.35033309240433
 40
12.44441128253299
 40
12.53078506477235
 40
12.5337014510324
 40
12.61117561782561
 40
12.61888100738803
 40
12.6954009968953
 40
12.72689018261089
 40
12.81235354947464
 40
12.83982660934106
 40
12.93779021042423
 40
12.9594288304552
 40
13.07315679553722
 40
13.08651426957466
 40
13.21918799522312
 40
13.22121418726378
 40
13.36319704758667
 40
13.51182769986819
 40
13.66629088950831
 40
13.82567333586481
 40
14.1553738460691
 40
14.49351398024286
 40
14.66370262740164
 40
14.87514894955165
 40
15.0824225165943
 40
15.38711325403455
 40
15.6864750497644
 40
16.08131693084403
 40
16.54637768073544
 40
16.83712875230909
 40
16.83712875230909
 40
16.83712875230909
 40
16.83712875230909
 10
19.47069208563744
 20
22.67696964477389
 30
0.0
 10
19.48217407512811
 20
21.28485125470959
 30
0.0
 10
19.50232146065309
 20
20.69567579638195
 30
0.0
 10
19.51883409806078
 20
19.85108762539474
 30
0.0
 10
19.5171498972918
 20
19.17109869242475
 30
0.0
 10
19.49995277961852
 20
18.57340818653282
 30
0.0
 10
19.46944036464583
 20
18.00966820730608
 30
0.0
 10
19.41548380002632
 20
17.39708154744565
 30
0.0
 10
19.33433073928745
 20
16.7379528131917
 30
0.0
 10
19.23289622145739
 20
16.0829543917487
 30
0.0
 10
19.11360842073236
 20
15.43213744262383
 30
0.0
 10
18.97886579496981
 20
14.78553119883762
 30
0.0
 10
18.83103830886421
 20
14.14315769485964
 30
0.0
 10
18.64854303584934
 20
13.40875096925973
 30
0.0
 10
18.42800439361099
 20
12.5823344853641
 30
0.0
 10
18.20438601741216
 20
11.81893766467036
 30
0.0
 10
18.01248988735051
 20
11.21147665506194
 30
0.0
 10
17.86159750769593
 20
10.75763253433232
 30
0.0
 10
17.70336577684657
 20
10.30596121580018
 30
0.0
 10
17.53737177445282
 20
9.856719958802643
 30
0.0
 10
17.36319189444976
 20
9.410169918151752
 30
0.0
 10
17.18040170454651
 20
8.966575229205574
 30
0.0
 10
16.98857650212767
 20
8.526203775401683
 30
0.0
 10
16.78729147710465
 20
8.089327388231396
 30
0.0
 10
16.57612319975897
 20
7.656222493095612
 30
0.0
 10
16.33584728746018
 20
7.190750419532179
 30
0.0
 10
16.03955221938259
 20
6.652670693324382
 30
0.0
 10
15.68469220158795
 20
6.047853385262243
 30
0.0
 10
15.23534087800863
 20
5.318865569203155
 30
0.0
 10
14.71696083287725
 20
4.508368500422222
 30
0.0
 10
14.18516873230737
 20
3.716566369682624
 30
0.0
 10
13.70360179193858
 20
3.029749782385153
 30
0.0
 10
13.27534218051414
 20
2.439873697539753
 30
0.0
 10
12.82961288308206
 20
1.846908287821208
 30
0.0
 10
12.36362351920934
 20
1.247766915783615
 30
0.0
 10
11.93788669490596
 20
0.7181795324279676
 30
0.0
 10
11.62999333736434
 20
0.3141488788239997
 30
0.0
 10
11.44062381456433
 20
0.0480290466728377
 30
0.0
 10
11.30973851338649
 20
-0.1472017912217041
 30
0.0
 10
11.18992290582855
 20
-0.3399708183039536
 30
0.0
 10
11.08265496218473
 20
-0.5297905738331963
 30
0.0
 10
10.98925492648914
 20
-0.716114393154129
 30
0.0
 10
10.91082857565607
 20
-0.8984042155827581
 30
0.0
 10
10.84886197290098
 20
-1.074371843247917
 30
0.0
 10
10.81712959079368
 20
-1.192587083794677
 30
0.0
 10
10.79311266840841
 20
-1.301136609820986
 30
0.0
 10
10.78273065140229
 20
-1.359042694749149
 30
0.0
 10
10.76888853463925
 20
-1.46594674780701
 30
0.0
 10
10.76271202227008
 20
-1.542967312668424
 30
0.0
 10
10.75976700878118
 20
-1.671919918641123
 30
0.0
 10
10.76326840210777
 20
-1.768280088519276
 30
0.0
 10
10.77537507213628
 20
-1.908355980291816
 30
0.0
 10
10.78897441077379
 20
-2.005589089771746
 30
0.0
 10
10.81699440591956
 20
-2.158592443781089
 30
0.0
 10
10.83932420460906
 20
-2.255312433850321
 30
0.0
 10
10.88410914050974
 20
-2.422588939421274
 30
0.0
 10
10.91334874375525
 20
-2.51696497599616
 30
0.0
 10
10.97281930717463
 20
-2.691569476698731
 30
0.0
 10
11.04120542162082
 20
-2.874396140018433
 30
0.0
 10
11.15774700784505
 20
-3.14734623811475
 30
0.0
 10
11.28878488269356
 20
-3.426486291408963
 30
0.0
 10
11.48120363365842
 20
-3.809987078210924
 30
0.0
 10
11.74144226928865
 20
-4.296249247210397
 30
0.0
 10
12.00658411692302
 20
-4.788022381388345
 30
0.0
 10
12.22526079790305
 20
-5.215185230048718
 30
0.0
 10
12.39508352114308
 20
-5.569225236177061
 30
0.0
 10
12.59174606950774
 20
-6.009635104362332
 30
0.0
 10
12.79680760983638
 20
-6.510267130718347
 30
0.0
 10
13.02972588973489
 20
-7.134224452280904
 30
0.0
 10
13.27944580907342
 20
-7.865702312474895
 30
0.0
 10
13.51288865106153
 20
-8.596451487878966
 30
0.0
 10
13.66159750791076
 20
-9.077883092400242
 30
0.0
 10
13.71843948690139
 20
-9.263195946399463
 30
0.0
  0
SPLINE
  5
271E
330
1F
100
AcDbEntity
  8
0
100
AcDbSpline
210
0.0
220
0.0
230
1.0
 70
     8
 71
     3
 72
    16
 73
    12
 74
     0
 42
0.000000001
 43
0.0
 40
0.0
 40
0.0
 40
0.0
 40
0.0
 40
1.930018740292315
 40
3.585238025664935
 40
7.094187603237307
 40
8.095581775541081
 40
9.740630598209114
 40
12.08883569643128
 40
14.17695592570358
 40
15.55088765350512
 40
16.51513562199165
 40
16.51513562199165
 40
16.51513562199165
 40
16.51513562199165
 10
20.26371356312984
 20
23.01900686134812
 30
0.0
 10
20.4422535216504
 20
21.74040581268744
 30
0.0
 10
20.77391260610739
 20
19.36525317628437
 30
0.0
 10
20.26242519643483
 20
14.61784958031765
 30
0.0
 10
18.77933009550679
 20
10.76019108026938
 30
0.0
 10
17.32286471093312
 20
6.909112867703953
 30
0.0
 10
15.57717241446471
 20
4.104765504791686
 30
0.0
 10
12.92501599230809
 20
0.6966049060872876
 30
0.0
 10
13.75811843699876
 20
-3.412684903342978
 30
0.0
 10
15.01630472298029
 20
-6.048736498317538
 30
0.0
 10
15.45882572239634
 20
-7.54743450849648
 30
0.0
 10
15.63731534541284
 20
-8.167400529396872
 30
0.0
  0
SPLINE
  5
271F
330
1F
100
AcDbEntity
  8
0
100
AcDbSpline
210
0.0
220
0.0
230
1.0
 70
     8
 71
     3
 72
    74
 73
    70
 74
     0
 42
0.000000001
 43
0.0
 40
0.0
 40
0.0
 40
0.0
 40
0.0
 40
0.5769373689436019
 40
1.01407300147978
 40
1.307501019139952
 40
1.602587764127529
 40
1.899502185172806
 40
2.048738003714556
 40
2.296184366627695
 40
2.543424440954593
 40
2.790432484258548
 40
3.037157884958285
 40
3.2835266429637
 40
3.529442846158792
 40
3.774790124303337
 40
4.034019576519425
 40
4.292384513570077
 40
4.550012132167745
 40
4.80700314249408
 40
5.063433501212167
 40
5.319356281860693
 40
5.574803661273403
 40
6.084302046250157
 40
6.591860233659464
 40
7.348922877544401
 40
7.783739028439963
 40
8.078077885077413
 40
8.375732228267315
 40
8.620860986869356
 40
8.86483640927638
 40
9.108090067329353
 40
9.351009982237533
 40
9.715507367937876
 40
10.08105651265638
 40
10.42770373295681
 40
10.7685205835405
 40
10.93584694908447
 40
11.10064340543038
 40
11.26258481779669
 40
11.42139390338434
 40
11.57686443733567
 40
11.72888870621666
 40
11.87748966709959
 40
12.02285749918614
 40
12.16538884393416
 40
12.29906084066881
 40
12.3057285913409
 40
12.4307202667603
 40
12.55774322573385
 40
12.68699377767247
 40
12.81855814470595
 40
12.95242814029007
 40
13.0885158727288
 40
13.22666686666277
 40
13.36667138086328
 40
13.5082739456783
 40
13.65118127747737
 40
13.79506878508549
 40
13.93958589416705
 40
14.08436040142494
 40
14.22900204537821
 40
14.41947624066577
 40
14.70749837982003
 40
15.19699231533136
 40
15.49806583624335
 40
15.59989071711615
 40
15.91933352935712
 40
16.2357301474282
 40
16.57239428896716
 40
16.57239428896716
 40
16.57239428896716
 40
16.57239428896716
 10
20.94215581716298
 20
23.21999962517637
 30
0.0
 10
20.99137283190566
 20
22.87450376419409
 30
0.0
 10
21.08669580429296
 20
22.20519421033421
 30
0.0
 10
21.19286848750517
 20
21.33993162555251
 30
0.0
 10
21.25965432200928
 20
20.65937728335737
 30
0.0
 10
21.30256961757595
 20
20.07058096811923
 30
0.0
 10
21.32335331722834
 20
19.57675571076769
 30
0.0
 10
21.33024645817977
 20
19.11438724282723
 30
0.0
 10
21.32554121466774
 20
18.6850528165285
 30
0.0
 10
21.30483284506454
 20
18.19095037751757
 30
0.0
 10
21.26953722006556
 20
17.69816070920913
 30
0.0
 10
21.22034283126914
 20
17.20715437756942
 30
0.0
 10
21.15793041771349
 20
16.71839158317678
 30
0.0
 10
21.08297264489238
 20
16.23232948463809
 30
0.0
 10
20.99441501677711
 20
15.73985032921499
 30
0.0
 10
20.89210189832693
 20
15.24156669338461
 30
0.0
 10
20.7762593665625
 20
14.73785728769533
 30
0.0
 10
20.6498848663482
 20
14.23823260172392
 30
0.0
 10
20.51396783200153
 20
13.74246295003948
 30
0.0
 10
20.36948905242707
 20
13.25031093401665
 30
0.0
 10
20.21741997664822
 20
12.76153387025605
 30
0.0
 10
20.00601929058894
 20
12.11460008181692
 30
0.0
 10
19.72763851239188
 20
11.31316517728808
 30
0.0
 10
19.32038119390518
 20
10.20271007311456
 30
0.0
 10
18.91731503105211
 20
9.143876707314377
 30
0.0
 10
18.56612094471302
 20
8.217361829312068
 30
0.0
 10
18.30958123576738
 20
7.582648268475424
 30
0.0
 10
18.08510712649286
 20
7.07155553058945
 30
0.0
 10
17.85591039717428
 20
6.599662555707056
 30
0.0
 10
17.62869606222694
 20
6.167433497412532
 30
0.0
 10
17.38986565794539
 20
5.743216226293754
 30
0.0
 10
17.09906450141489
 20
5.256274702985394
 30
0.0
 10
16.75101505538214
 20
4.70879384381513
 30
0.0
 10
16.35022783542945
 20
4.113236250050051
 30
0.0
 10
15.94780012064757
 20
3.538021648150135
 30
0.0
 10
15.62228306122188
 20
3.070261581791129
 30
0.0
 10
15.37233653601425
 20
2.697694240856237
 30
0.0
 10
15.19337003248393
 20
2.421157526953067
 30
0.0
 10
15.02345431990534
 20
2.145603641569124
 30
0.0
 10
14.86424272325485
 20
1.870874602067744
 30
0.0
 10
14.71731427702935
 20
1.59684306399302
 30
0.0
 10
14.58415565325458
 20
1.32338731027383
 30
0.0
 10
14.46614204514617
 20
1.050357355624584
 30
0.0
 10
14.36452424892877
 20
0.7775202171576723
 30
0.0
 10
14.28174349257688
 20
0.5087676289533931
 30
0.0
 10
14.23753420462481
 20
0.3252887943042708
 30
0.0
 10
14.20210039138829
 20
0.1519876295108418
 30
0.0
 10
14.1730789569724
 20
-0.0181317837957238
 30
0.0
 10
14.14490560576405
 20
-0.2708684078422436
 30
0.0
 10
14.13020171759081
 20
-0.5291284627416815
 30
0.0
 10
14.1285012344938
 20
-0.792349114193911
 30
0.0
 10
14.13930119037786
 20
-1.059903299760407
 30
0.0
 10
14.1620580289441
 20
-1.331101518520626
 30
0.0
 10
14.19618390613823
 20
-1.605216145389221
 30
0.0
 10
14.24104839050187
 20
-1.88149520976387
 30
0.0
 10
14.29598196415054
 20
-2.15917452480582
 30
0.0
 10
14.36028069945633
 20
-2.43748613453883
 30
0.0
 10
14.43321126199362
 20
-2.715664280750133
 30
0.0
 10
14.51401552615562
 20
-2.992949402883113
 30
0.0
 10
14.6019156231182
 20
-3.268590297870304
 30
0.0
 10
14.70619120616311
 20
-3.571074970567423
 30
0.0
 10
14.85139101592222
 20
-3.960348773075765
 30
0.0
 10
15.09281906819297
 20
-4.558879015725978
 30
0.0
 10
15.37432790818048
 20
-5.22054658583076
 30
0.0
 10
15.59555594056428
 20
-5.772895916969645
 30
0.0
 10
15.76450446982062
 20
-6.223859749426737
 30
0.0
 10
15.92440945542648
 20
-6.689044238238438
 30
0.0
 10
16.11697919795688
 20
-7.308173800538697
 30
0.0
 10
16.23866145790953
 20
-7.726206761376233
 30
0.0
 10
16.30081320869385
 20
-7.941875850098512
 30
0.0
  0
SPLINE
  5
2720
330
1F
100
AcDbEntity
  8
0
100
AcDbSpline
210
0.0
220
0.0
230
1.0
 70
  1064
 71
     3
 72
    16
 73
    12
 74
    10
 42
0.000000001
 43
0.0000000001
 44
0.0000000001
 12
0.02713775558096822
 22
-0.9996317032897798
 32
0.0
 13
0.3226502527796559
 23
-0.9465182588736598
 33
0.0
 40
0.0
 40
0.0
 40
0.0
 40
0.0
 40
3.790504599318958
 40
7.297348362341688
 40
13.47993574317242
 40
15.58096696456519
 40
18.46433562151658
 40
22.76994188808589
 40
26.08372354597465
 40
28.21514104820375
 40
31.90300775238435
 40
31.90300775238435
 40
31.90300775238435
 40
31.90300775238435
 10
22.94378718416056
 20
23.65437437695826
 30
0.0
 10
22.97807577994217
 20
22.39133818730994
 30
0.0
 10
23.04402533647546
 20
19.96205757048268
 30
0.0
 10
23.20697609957688
 20
15.4595692905432
 30
0.0
 10
22.38765352984812
 20
11.57091623972852
 30
0.0
 10
21.34542434944566
 20
7.998797200762716
 30
0.0
 10
20.27892752335499
 20
5.094184083517828
 30
0.0
 10
18.01418270381004
 20
2.179488282492166
 30
0.0
 10
18.29723845055334
 20
-1.222039891730214
 30
0.0
 10
18.94437406337187
 20
-4.17493826381138
 30
0.0
 10
19.57372560687554
 20
-6.021187309446563
 30
0.0
 10
19.97035598164939
 20
-7.184731700046285
 30
0.0
 11
22.94378718416056
 21
23.65437437695826
 31
0.0
 11
23.05259595134081
 21
19.8654318108004
 31
0.0
 11
23.07108993188382
 21
16.35863681380741
 31
0.0
 11
21.99401183957582
 21
10.27059201233974
 31
0.0
 11
21.39942717132116
 21
8.255449023481704
 31
0.0
 11
20.32559104148804
 21
5.579502316584371
 31
0.0
 11
18.39558448904079
 21
1.730694705098501
 31
0.0
 11
18.41591311197615
 21
-1.583024598531423
 31
0.0
 11
18.86320327030433
 21
-3.666980472121666
 31
0.0
 11
19.97035598164939
 21
-7.184731700046285
 31
0.0
  0
SPLINE
  5
2721
330
1F
100
AcDbEntity
  8
0
100
AcDbSpline
210
0.0
220
0.0
230
1.0
 70
     8
 71
     3
 72
    67
 73
    63
 74
     0
 42
0.000000001
 43
0.0
 40
0.0
 40
0.0
 40
0.0
 40
0.0
 40
1.622887759327462
 40
1.893373148591936
 40
2.397021808654394
 40
2.778605349760514
 40
3.163280450736835
 40
3.421442463363694
 40
3.681029224758603
 40
3.91031826648026
 40
4.139252907204667
 40
4.36787600057388
 40
4.596217880298823
 40
4.824296855082908
 40
5.052119729609959
 40
5.279682345993213
 40
5.506970140407956
 40
5.960604728145165
 40
6.412732919187591
 40
6.862921391074264
 40
7.397344897831261
 40
7.856203685426843
 40
7.932780242190312
 40
8.249731551009848
 40
8.569998715265601
 40
8.78547755761463
 40
9.002667141497316
 40
9.221737150532821
 40
9.44290518216718
 40
9.60790278842913
 40
9.77088937562483
 40
10.09031186024987
 40
10.39967496980042
 40
10.54998638451031
 40
10.69706381889722
 40
10.8407045979582
 40
10.98076898912764
 40
11.11721348704228
 40
11.25012960412017
 40
11.37978739951723
 40
11.50663309592685
 40
11.50668106302988
 40
11.60422236016465
 40
11.70338747081803
 40
11.80428500486619
 40
11.90696362831784
 40
12.01142036996199
 40
12.11760845731659
 40
12.22544443920214
 40
12.3348144965727
 40
12.44557994191129
 40
12.6706340152037
 40
12.89918086798179
 40
13.01427114885284
 40
13.30941497032578
 40
13.60273337989862
 40
13.89558900868182
 40
14.04225293198359
 40
14.42508707204456
 40
14.81151215301742
 40
15.33207134761977
 40
15.85809205121506
 40
15.85809205121506
 40
15.85809205121506
 40
15.85809205121506
 10
23.74349254679282
 20
23.67608458142266
 30
0.0
 10
23.77285356769016
 20
22.59455787801951
 30
0.0
 10
23.8071072109492
 20
21.33276802379604
 30
0.0
 10
23.85691620479656
 20
19.73553067408582
 30
0.0
 10
23.88238980000506
 20
18.96546846167465
 30
0.0
 10
23.90100612535343
 20
18.1190455586391
 30
0.0
 10
23.9037123298599
 20
17.43604072658425
 30
0.0
 10
23.89277255229581
 20
16.83448765730353
 30
0.0
 10
23.87298120347941
 20
16.33680694978082
 30
0.0
 10
23.8425771540692
 20
15.85919453207251
 30
0.0
 10
23.80374936942781
 20
15.40291297894808
 30
0.0
 10
23.75574835394718
 20
14.9481430560825
 30
0.0
 10
23.69908819660532
 20
14.4949487372858
 30
0.0
 10
23.63427947304308
 20
14.04338958275846
 30
0.0
 10
23.56182943408885
 20
13.59352241072182
 30
0.0
 10
23.48224171178799
 20
13.14540063008761
 30
0.0
 10
23.36735575311241
 20
12.55072076083323
 30
0.0
 10
23.20846752284115
 20
11.81215563998583
 30
0.0
 10
22.99708438277003
 20
10.93317674673816
 30
0.0
 10
22.75435741900355
 20
10.00656631135624
 30
0.0
 10
22.49383727828126
 20
9.08011444330785
 30
0.0
 10
22.28542940467787
 20
8.397928938267597
 30
0.0
 10
22.11180858945818
 20
7.856844960033214
 30
0.0
 10
21.96164200825433
 20
7.405260272775905
 30
0.0
 10
21.76875699597758
 20
6.870426220001974
 30
0.0
 10
21.58545155261481
 20
6.403086674404022
 30
0.0
 10
21.41641072109496
 20
6.002765308454656
 30
0.0
 10
21.23413597678291
 20
5.604106147058957
 30
0.0
 10
21.05440060095543
 20
5.242760945643823
 30
0.0
 10
20.88117099580131
 20
4.92019797247238
 30
0.0
 10
20.6691976760826
 20
4.544206339742033
 30
0.0
 10
20.40020791687448
 20
4.090007407833383
 30
0.0
 10
20.13358939165437
 20
3.644258963724752
 30
0.0
 10
19.93123966466601
 20
3.293992502161728
 30
0.0
 10
19.78833587496274
 20
3.037016471765838
 30
0.0
 10
19.65447898128468
 20
2.782894738767283
 30
0.0
 10
19.53122295890307
 20
2.5313167123293
 30
0.0
 10
19.41999723700837
 20
2.281980563713461
 30
0.0
 10
19.32208836937252
 20
2.034537830316623
 30
0.0
 10
19.2386443247583
 20
1.788580617263761
 30
0.0
 10
19.19289577031805
 20
1.623651732876425
 30
0.0
 10
19.15749540666957
 20
1.47827654216897
 30
0.0
 10
19.12956448820796
 20
1.350056605778519
 30
0.0
 10
19.09615191401053
 20
1.154427303881477
 30
0.0
 10
19.07059643312141
 20
0.9541670623864604
 30
0.0
 10
19.05259803273066
 20
0.7495535990790643
 30
0.0
 10
19.04183478939512
 20
0.5409067070884532
 30
0.0
 10
19.03796037097118
 20
0.3285855794349857
 30
0.0
 10
19.04060157606136
 20
0.1129753260554764
 30
0.0
 10
19.04935770807924
 20
-0.1055229654368475
 30
0.0
 10
19.06872301896829
 20
-0.401709743223563
 30
0.0
 10
19.10612678521875
 20
-0.7762081140142243
 30
0.0
 10
19.15740569713262
 20
-1.151914417526058
 30
0.0
 10
19.22366376063519
 20
-1.572587823079374
 30
0.0
 10
19.30628863378251
 20
-2.034366359112227
 30
0.0
 10
19.42637090294875
 20
-2.609582825545402
 30
0.0
 10
19.53908542441377
 20
-3.085023283967274
 30
0.0
 10
19.67547293693906
 20
-3.616032496559654
 30
0.0
 10
19.83998364854369
 20
-4.204162899502279
 30
0.0
 10
20.09144508004601
 20
-5.02650923450912
 30
0.0
 10
20.38929486561256
 20
-5.934284800148106
 30
0.0
 10
20.6144234467597
 20
-6.59468603082334
 30
0.0
 10
20.72757058874822
 20
-6.926611497822449
 30
0.0
  0
SPLINE
  5
2722
330
1F
100
AcDbEntity
  8
0
100
AcDbSpline
210
0.0
220
0.0
230
1.0
 70
  1064
 71
     3
 72
    16
 73
    12
 74
    10
 42
0.000000001
 43
0.0000000001
 44
0.0000000001
 12
-0.03484685319557625
 22
-0.999392663982663
 32
0.0
 13
-0.2911140711747792
 23
-0.9566883492360763
 33
0.0
 40
0.0
 40
0.0
 40
0.0
 40
0.0
 40
3.626628682070503
 40
8.14233467114828
 40
14.69060713826301
 40
16.75120188169259
 40
21.76928928539843
 40
25.20213253776265
 40
29.57787566907677
 40
32.3257391246805
 40
34.48281052618159
 40
34.48281052618159
 40
34.48281052618159
 40
34.48281052618159
 10
33.06435450854724
 20
21.72775828992306
 30
0.0
 10
33.02222897612091
 20
20.5196162566396
 30
0.0
 10
32.92716029538451
 20
17.79309006361882
 30
0.0
 10
33.90894993567107
 20
12.96772248524615
 30
0.0
 10
35.30399581794708
 20
8.786402954960383
 30
0.0
 10
37.65828710841633
 20
4.864340351979314
 30
0.0
 10
39.56661710579337
 20
2.115690552868177
 30
0.0
 10
42.69218649609364
 20
-1.558165338438528
 30
0.0
 10
40.32294154185672
 20
-4.987213559769947
 30
0.0
 10
39.28781568472414
 20
-7.803395249908288
 30
0.0
 10
38.80762989684673
 20
-9.381430157186061
 30
0.0
 10
38.59831195101151
 20
-10.06931184994821
 30
0.0
 11
33.06435450854724
 21
21.72775828992306
 31
0.0
 11
33.06435450854759
 21
18.10112960785256
 31
0.0
 11
33.84584134986378
 21
13.65355960878086
 31
0.0
 11
36.11210596973007
 21
7.509951794449366
 31
0.0
 11
37.15259535872789
 21
5.731347699089028
 31
0.0
 11
40.03954362846946
 21
1.626870767850733
 31
0.0
 11
41.75596525465278
 21
-1.346058695905981
 31
0.0
 11
40.26104495433478
 21
-5.458520397483255
 31
0.0
 11
39.24291453900238
 21
-8.010806437099028
 31
0.0
 11
38.59831195101151
 21
-10.06931184994821
 31
0.0
  0
SPLINE
  5
2723
330
1F
100
AcDbEntity
  8
0
100
AcDbSpline
210
0.0
220
0.0
230
1.0
 70
     8
 71
     3
 72
    77
 73
    73
 74
     0
 42
0.000000001
 43
0.0
 40
0.0
 40
0.0
 40
0.0
 40
0.0
 40
0.5036792071641772
 40
0.8842644739078627
 40
1.267069319885508
 40
1.523530803037171
 40
1.781093770107759
 40
2.11380978073782
 40
2.445747834301787
 40
2.77707810999862
 40
3.107874917230746
 40
3.438125592404188
 40
3.767739835429296
 40
4.096559286055395
 40
4.573198444361787
 40
5.050645288441086
 40
5.289619463550655
 40
5.52874426687562
 40
5.768022070901275
 40
6.007465738710653
 40
6.247099196187833
 40
6.486957987884676
 40
6.727089811105727
 40
6.967555022286957
 40
7.208427109369123
 40
7.449793123618561
 40
7.753225492452931
 40
8.12970335869015
 40
8.501520227951383
 40
9.037702699081008
 40
9.572741831460009
 40
9.932094980408571
 40
10.29588573685182
 40
10.66610690191623
 40
11.04476213461397
 40
11.43436175839239
 40
11.68533754572752
 40
11.80656980890013
 40
11.9242415145337
 40
12.03784840182531
 40
12.14694432701425
 40
12.2511762849721
 40
12.35033309240433
 40
12.44441128253299
 40
12.53078506477235
 40
12.5337014510324
 40
12.61117561782561
 40
12.61888100738803
 40
12.6954009968953
 40
12.72689018261089
 40
12.81235354947464
 40
12.83982660934106
 40
12.93779021042423
 40
12.9594288304552
 40
13.07315679553722
 40
13.08651426957466
 40
13.21918799522312
 40
13.22121418726378
 40
13.36319704758667
 40
13.51182769986819
 40
13.66629088950831
 40
13.82567333586481
 40
14.1553738460691
 40
14.49351398024286
 40
14.66370262740164
 40
14.87514894955165
 40
15.0824225165943
 40
15.38711325403455
 40
15.6864750497644
 40
16.08131693084403
 40
16.54637768073544
 40
16.83712875230916
 40
16.83712875230916
 40
16.83712875230916
 40
16.83712875230916
 10
32.53793989356154
 20
22.63477148751943
 30
0.0
 10
32.45322339777113
 20
21.28485125470959
 30
0.0
 10
32.43307601224615
 20
20.69567579638195
 30
0.0
 10
32.41656337483846
 20
19.85108762539474
 30
0.0
 10
32.41824757560744
 20
19.17109869242475
 30
0.0
 10
32.43544469328072
 20
18.57340818653282
 30
0.0
 10
32.46595710825341
 20
18.00966820730608
 30
0.0
 10
32.51991367287292
 20
17.39708154744565
 30
0.0
 10
32.60106673361179
 20
16.7379528131917
 30
0.0
 10
32.70250125144184
 20
16.0829543917487
 30
0.0
 10
32.82178905216688
 20
15.43213744262383
 30
0.0
 10
32.95653167792943
 20
14.78553119883762
 30
0.0
 10
33.10435916403503
 20
14.14315769485964
 30
0.0
 10
33.2868544370499
 20
13.40875096925973
 30
0.0
 10
33.50739307928825
 20
12.5823344853641
 30
0.0
 10
33.73101145548708
 20
11.81893766467036
 30
0.0
 10
33.92290758554873
 20
11.21147665506194
 30
0.0
 10
34.07379996520331
 20
10.75763253433232
 30
0.0
 10
34.23203169605267
 20
10.30596121580018
 30
0.0
 10
34.39802569844642
 20
9.856719958802643
 30
0.0
 10
34.57220557844948
 20
9.410169918151752
 30
0.0
 10
34.75499576835273
 20
8.966575229205574
 30
0.0
 10
34.94682097077157
 20
8.526203775401683
 30
0.0
 10
35.14810599579459
 20
8.089327388231396
 30
0.0
 10
35.35927427314027
 20
7.656222493095612
 30
0.0
 10
35.59955018543906
 20
7.190750419532179
 30
0.0
 10
35.89584525351665
 20
6.652670693324382
 30
0.0
 10
36.25070527131129
 20
6.047853385262243
 30
0.0
 10
36.70005659489061
 20
5.318865569203155
 30
0.0
 10
37.21843664002199
 20
4.508368500422222
 30
0.0
 10
37.75022874059187
 20
3.716566369682624
 30
0.0
 10
38.23179568096066
 20
3.029749782385153
 30
0.0
 10
38.6600552923851
 20
2.439873697539753
 30
0.0
 10
39.10578458981718
 20
1.846908287821208
 30
0.0
 10
39.5717739536899
 20
1.247766915783615
 30
0.0
 10
39.99751077799328
 20
0.7181795324279676
 30
0.0
 10
40.3054041355349
 20
0.3141488788239997
 30
0.0
 10
40.49477365833491
 20
0.0480290466728377
 30
0.0
 10
40.62565895951275
 20
-0.1472017912217041
 30
0.0
 10
40.74547456707069
 20
-0.3399708183039536
 30
0.0
 10
40.85274251071451
 20
-0.5297905738331963
 30
0.0
 10
40.9461425464101
 20
-0.716114393154129
 30
0.0
 10
41.02456889724317
 20
-0.8984042155827581
 30
0.0
 10
41.08653549999826
 20
-1.074371843247917
 30
0.0
 10
41.11826788210556
 20
-1.192587083794677
 30
0.0
 10
41.14228480449083
 20
-1.301136609820986
 30
0.0
 10
41.15266682149695
 20
-1.359042694749149
 30
0.0
 10
41.16650893825999
 20
-1.46594674780701
 30
0.0
 10
41.17268545062916
 20
-1.542967312668424
 30
0.0
 10
41.17563046411806
 20
-1.671919918641123
 30
0.0
 10
41.17212907079147
 20
-1.768280088519276
 30
0.0
 10
41.16002240076295
 20
-1.908355980291816
 30
0.0
 10
41.14642306212545
 20
-2.005589089771746
 30
0.0
 10
41.11840306697968
 20
-2.158592443781089
 30
0.0
 10
41.09607326829018
 20
-2.255312433850321
 30
0.0
 10
41.0512883323895
 20
-2.422588939421274
 30
0.0
 10
41.02204872914399
 20
-2.51696497599616
 30
0.0
 10
40.96257816572461
 20
-2.691569476698731
 30
0.0
 10
40.89419205127842
 20
-2.874396140018433
 30
0.0
 10
40.77765046505419
 20
-3.14734623811475
 30
0.0
 10
40.64661259020568
 20
-3.426486291408963
 30
0.0
 10
40.45419383924082
 20
-3.809987078210924
 30
0.0
 10
40.19395520361059
 20
-4.296249247210397
 30
0.0
 10
39.92881335597622
 20
-4.788022381388345
 30
0.0
 10
39.71013667499619
 20
-5.215185230048718
 30
0.0
 10
39.54031395175616
 20
-5.569225236177061
 30
0.0
 10
39.3436514033915
 20
-6.009635104362332
 30
0.0
 10
39.13858986306286
 20
-6.510267130718347
 30
0.0
 10
38.90567158316435
 20
-7.134224452280904
 30
0.0
 10
38.65595166382582
 20
-7.865702312474895
 30
0.0
 10
38.4225088218368
 20
-8.596451487878966
 30
0.0
 10
38.27379996498848
 20
-9.077883092400242
 30
0.0
 10
38.21695798599785
 20
-9.263195946399463
 30
0.0
  0
SPLINE
  5
2724
330
1F
100
AcDbEntity
  8
0
100
AcDbSpline
210
0.0
220
0.0
230
1.0
 70
     8
 71
     3
 72
    16
 73
    12
 74
     0
 42
0.000000001
 43
0.0
 40
0.0
 40
0.0
 40
0.0
 40
0.0
 40
1.930018740292618
 40
3.585238025665238
 40
7.094187603237609
 40
8.095581775541383
 40
9.740630598209416
 40
12.08883569643158
 40
14.17695592570388
 40
15.55088765350542
 40
16.51513562199201
 40
16.51513562199201
 40
16.51513562199201
 40
16.51513562199201
 10
31.67168390976758
 20
23.01900686134857
 30
0.0
 10
31.49314395124702
 20
21.7404058126879
 30
0.0
 10
31.16148486679276
 20
19.36525317628437
 30
0.0
 10
31.67297227646441
 20
14.61784958031765
 30
0.0
 10
33.15606737739245
 20
10.76019108026938
 30
0.0
 10
34.61253276196612
 20
6.909112867703953
 30
0.0
 10
36.35822505843453
 20
4.104765504791686
 30
0.0
 10
39.01038148059115
 20
0.6966049060872876
 30
0.0
 10
38.17727903590048
 20
-3.412684903342978
 30
0.0
 10
36.91909274991986
 20
-6.048736498317538
 30
0.0
 10
36.4765717505029
 20
-7.54743450849648
 30
0.0
 10
36.2980821274864
 20
-8.167400529396872
 30
0.0
  0
SPLINE
  5
2725
330
1F
100
AcDbEntity
  8
0
100
AcDbSpline
210
0.0
220
0.0
230
1.0
 70
     8
 71
     3
 72
    74
 73
    70
 74
     0
 42
0.000000001
 43
0.0
 40
0.0
 40
0.0
 40
0.0
 40
0.0
 40
0.5769373689436019
 40
1.01407300147978
 40
1.307501019139952
 40
1.602587764127529
 40
1.899502185172806
 40
2.048738003714556
 40
2.296184366627695
 40
2.543424440954593
 40
2.790432484258548
 40
3.037157884958285
 40
3.2835266429637
 40
3.529442846158792
 40
3.774790124303337
 40
4.034019576519425
 40
4.292384513570077
 40
4.550012132167745
 40
4.80700314249408
 40
5.063433501212167
 40
5.319356281860693
 40
5.574803661273403
 40
6.084302046250157
 40
6.591860233659464
 40
7.348922877544401
 40
7.783739028439963
 40
8.078077885077413
 40
8.375732228267315
 40
8.620860986869356
 40
8.86483640927638
 40
9.108090067329353
 40
9.351009982237533
 40
9.715507367937876
 40
10.08105651265638
 40
10.42770373295681
 40
10.7685205835405
 40
10.93584694908447
 40
11.10064340543038
 40
11.26258481779669
 40
11.42139390338434
 40
11.57686443733567
 40
11.72888870621666
 40
11.87748966709959
 40
12.02285749918614
 40
12.16538884393416
 40
12.29906084066881
 40
12.3057285913409
 40
12.4307202667603
 40
12.55774322573385
 40
12.68699377767247
 40
12.81855814470595
 40
12.95242814029007
 40
13.0885158727288
 40
13.22666686666277
 40
13.36667138086328
 40
13.5082739456783
 40
13.65118127747737
 40
13.79506878508549
 40
13.93958589416705
 40
14.08436040142494
 40
14.22900204537821
 40
14.41947624066577
 40
14.70749837982003
 40
15.19699231533136
 40
15.49806583624335
 40
15.59989071711615
 40
15.91933352935712
 40
16.2357301474282
 40
16.57239428896701
 40
16.57239428896701
 40
16.57239428896701
 40
16.57239428896701
 10
30.99324165573626
 20
23.21999962517637
 30
0.0
 10
30.94402464099358
 20
22.87450376419409
 30
0.0
 10
30.84870166860628
 20
22.20519421033421
 30
0.0
 10
30.74252898539407
 20
21.33993162555251
 30
0.0
 10
30.67574315088996
 20
20.65937728335737
 30
0.0
 10
30.63282785532328
 20
20.07058096811923
 30
0.0
 10
30.6120441556709
 20
19.57675571076769
 30
0.0
 10
30.60515101471947
 20
19.11438724282723
 30
0.0
 10
30.6098562582315
 20
18.6850528165285
 30
0.0
 10
30.6305646278347
 20
18.19095037751757
 30
0.0
 10
30.66586025283368
 20
17.69816070920913
 30
0.0
 10
30.7150546416301
 20
17.20715437756942
 30
0.0
 10
30.77746705518575
 20
16.71839158317678
 30
0.0
 10
30.85242482800686
 20
16.23232948463809
 30
0.0
 10
30.94098245612213
 20
15.73985032921499
 30
0.0
 10
31.04329557457231
 20
15.24156669338461
 30
0.0
 10
31.15913810633674
 20
14.73785728769533
 30
0.0
 10
31.28551260655104
 20
14.23823260172392
 30
0.0
 10
31.42142964089771
 20
13.74246295003948
 30
0.0
 10
31.56590842047217
 20
13.25031093401665
 30
0.0
 10
31.71797749625102
 20
12.76153387025605
 30
0.0
 10
31.9293781823103
 20
12.11460008181692
 30
0.0
 10
32.20775896050736
 20
11.31316517728808
 30
0.0
 10
32.61501627899406
 20
10.20271007311456
 30
0.0
 10
33.01808244184713
 20
9.143876707314377
 30
0.0
 10
33.36927652818622
 20
8.217361829312068
 30
0.0
 10
33.62581623713186
 20
7.582648268475424
 30
0.0
 10
33.85029034640638
 20
7.07155553058945
 30
0.0
 10
34.07948707572496
 20
6.599662555707056
 30
0.0
 10
34.3067014106723
 20
6.167433497412532
 30
0.0
 10
34.54553181495385
 20
5.743216226293754
 30
0.0
 10
34.83633297148435
 20
5.256274702985394
 30
0.0
 10
35.1843824175171
 20
4.70879384381513
 30
0.0
 10
35.58516963746979
 20
4.113236250050051
 30
0.0
 10
35.98759735225167
 20
3.538021648150135
 30
0.0
 10
36.31311441167736
 20
3.070261581791129
 30
0.0
 10
36.56306093688499
 20
2.697694240856237
 30
0.0
 10
36.74202744041531
 20
2.421157526953067
 30
0.0
 10
36.9119431529939
 20
2.145603641569124
 30
0.0
 10
37.07115474964439
 20
1.870874602067744
 30
0.0
 10
37.21808319586989
 20
1.59684306399302
 30
0.0
 10
37.35124181964466
 20
1.32338731027383
 30
0.0
 10
37.46925542775307
 20
1.050357355624584
 30
0.0
 10
37.57087322397047
 20
0.7775202171576723
 30
0.0
 10
37.65365398032236
 20
0.5087676289533931
 30
0.0
 10
37.69786326827443
 20
0.3252887943042708
 30
0.0
 10
37.73329708151095
 20
0.1519876295108418
 30
0.0
 10
37.76231851592684
 20
-0.0181317837957238
 30
0.0
 10
37.79049186713519
 20
-0.2708684078422436
 30
0.0
 10
37.80519575530843
 20
-0.5291284627416815
 30
0.0
 10
37.80689623840544
 20
-0.792349114193911
 30
0.0
 10
37.79609628252138
 20
-1.059903299760407
 30
0.0
 10
37.77333944395514
 20
-1.331101518520626
 30
0.0
 10
37.73921356676101
 20
-1.605216145389221
 30
0.0
 10
37.69434908239737
 20
-1.88149520976387
 30
0.0
 10
37.6394155087487
 20
-2.15917452480582
 30
0.0
 10
37.57511677344291
 20
-2.43748613453883
 30
0.0
 10
37.50218621090562
 20
-2.715664280750133
 30
0.0
 10
37.42138194674362
 20
-2.992949402883113
 30
0.0
 10
37.33348184978104
 20
-3.268590297870304
 30
0.0
 10
37.22920626673613
 20
-3.571074970567423
 30
0.0
 10
37.08400645697702
 20
-3.960348773075765
 30
0.0
 10
36.84257840470627
 20
-4.558879015725978
 30
0.0
 10
36.56106956471876
 20
-5.22054658583076
 30
0.0
 10
36.33984153233496
 20
-5.772895916969645
 30
0.0
 10
36.17089300307862
 20
-6.223859749426737
 30
0.0
 10
36.01098801747276
 20
-6.689044238238438
 30
0.0
 10
35.81841827494236
 20
-7.308173800538242
 30
0.0
 10
35.69673601498971
 20
-7.726206761376233
 30
0.0
 10
35.6345842642063
 20
-7.941875850098057
 30
0.0
  0
SPLINE
  5
2726
330
1F
100
AcDbEntity
  8
0
100
AcDbSpline
210
0.0
220
0.0
230
1.0
 70
  1064
 71
     3
 72
    16
 73
    12
 74
    10
 42
0.000000001
 43
0.0000000001
 44
0.0000000001
 12
-0.02713775558024863
 22
-0.9996317032897998
 32
0.0
 13
-0.3226502527803347
 23
-0.9465182588734289
 33
0.0
 40
0.0
 40
0.0
 40
0.0
 40
0.0
 40
3.790504599318925
 40
7.297348362341646
 40
13.47993574317201
 40
15.5809669645648
 40
18.46433562151649
 40
22.76994188808634
 40
26.08372354597512
 40
28.21514104820383
 40
31.90300775238499
 40
31.90300775238499
 40
31.90300775238499
 40
31.90300775238499
 10
28.99161028873868
 20
23.65437437695826
 30
0.0
 10
28.95732169295798
 20
22.39133818730993
 30
0.0
 10
28.89137213642286
 20
19.96205757048269
 30
0.0
 10
28.72842137332604
 20
15.45956929054343
 30
0.0
 10
29.54774394305004
 20
11.57091623972829
 30
0.0
 10
30.58997312345356
 20
7.998797200762684
 30
0.0
 10
31.65646994954446
 20
5.094184083517774
 30
0.0
 10
33.92121476909276
 20
2.17948828249239
 30
0.0
 10
33.6381590223441
 20
-1.222039891729786
 30
0.0
 10
32.99102340953095
 20
-4.174938263812047
 30
0.0
 10
32.36167186602459
 20
-6.021187309446669
 30
0.0
 10
31.96504149124985
 20
-7.184731700046285
 30
0.0
 11
28.99161028873868
 21
23.65437437695826
 31
0.0
 11
28.8828015215586
 21
19.86543181080043
 31
0.0
 11
28.86430754101724
 21
16.35863681380743
 31
0.0
 11
29.94138563332296
 21
10.27059201233973
 31
0.0
 11
30.5359703015779
 21
8.25544902348176
 31
0.0
 11
31.60980643141171
 21
5.579502316584382
 31
0.0
 11
33.53981298386023
 21
1.730694705098544
 31
0.0
 11
33.51948436092292
 21
-1.583024598531381
 31
0.0
 11
33.07219420259683
 21
-3.66698047212168
 31
0.0
 11
31.96504149124985
 21
-7.184731700046285
 31
0.0
  0
SPLINE
  5
2727
330
1F
100
AcDbEntity
  8
0
100
AcDbSpline
210
0.0
220
0.0
230
1.0
 70
     8
 71
     3
 72
    67
 73
    63
 74
     0
 42
0.000000001
 43
0.0
 40
0.0
 40
0.0
 40
0.0
 40
0.0
 40
1.622887759327462
 40
1.893373148591936
 40
2.397021808654394
 40
2.778605349760514
 40
3.163280450736835
 40
3.421442463363694
 40
3.681029224758603
 40
3.91031826648026
 40
4.139252907204667
 40
4.36787600057388
 40
4.596217880298823
 40
4.824296855082908
 40
5.052119729609959
 40
5.279682345993213
 40
5.506970140407956
 40
5.960604728145165
 40
6.412732919187591
 40
6.862921391074264
 40
7.397344897831261
 40
7.856203685426843
 40
7.932780242190312
 40
8.249731551009848
 40
8.569998715265601
 40
8.78547755761463
 40
9.002667141497316
 40
9.221737150532821
 40
9.44290518216718
 40
9.60790278842913
 40
9.77088937562483
 40
10.09031186024987
 40
10.39967496980042
 40
10.54998638451031
 40
10.69706381889722
 40
10.8407045979582
 40
10.98076898912764
 40
11.11721348704228
 40
11.25012960412017
 40
11.37978739951723
 40
11.50663309592685
 40
11.50668106302988
 40
11.60422236016465
 40
11.70338747081803
 40
11.80428500486619
 40
11.90696362831784
 40
12.01142036996199
 40
12.11760845731659
 40
12.22544443920214
 40
12.3348144965727
 40
12.44557994191129
 40
12.6706340152037
 40
12.89918086798179
 40
13.01427114885284
 40
13.30941497032578
 40
13.60273337989862
 40
13.89558900868182
 40
14.04225293198359
 40
14.42508707204456
 40
14.81151215301742
 40
15.33207134761977
 40
15.85809205121506
 40
15.85809205121506
 40
15.85809205121506
 40
15.85809205121506
 10
28.19190492610642
 20
23.67608458142266
 30
0.0
 10
28.16254390520908
 20
22.59455787801951
 30
0.0
 10
28.12829026195004
 20
21.33276802379604
 30
0.0
 10
28.07848126810268
 20
19.73553067408582
 30
0.0
 10
28.05300767289418
 20
18.96546846167465
 30
0.0
 10
28.03439134754581
 20
18.1190455586391
 30
0.0
 10
28.03168514303934
 20
17.43604072658425
 30
0.0
 10
28.04262492060343
 20
16.83448765730353
 30
0.0
 10
28.06241626941983
 20
16.33680694978082
 30
0.0
 10
28.09282031883004
 20
15.85919453207251
 30
0.0
 10
28.13164810347143
 20
15.40291297894808
 30
0.0
 10
28.17964911895206
 20
14.9481430560825
 30
0.0
 10
28.23630927629392
 20
14.4949487372858
 30
0.0
 10
28.30111799985616
 20
14.04338958275846
 30
0.0
 10
28.37356803881039
 20
13.59352241072182
 30
0.0
 10
28.45315576111125
 20
13.14540063008761
 30
0.0
 10
28.56804171978683
 20
12.55072076083323
 30
0.0
 10
28.72692995005809
 20
11.81215563998583
 30
0.0
 10
28.93831309012921
 20
10.93317674673816
 30
0.0
 10
29.18104005389569
 20
10.00656631135624
 30
0.0
 10
29.44156019461798
 20
9.08011444330785
 30
0.0
 10
29.64996806822137
 20
8.397928938267597
 30
0.0
 10
29.82358888344106
 20
7.856844960033214
 30
0.0
 10
29.97375546464491
 20
7.405260272775905
 30
0.0
 10
30.16664047692166
 20
6.870426220001974
 30
0.0
 10
30.34994592028443
 20
6.403086674404022
 30
0.0
 10
30.51898675180428
 20
6.002765308454656
 30
0.0
 10
30.70126149611633
 20
5.604106147058957
 30
0.0
 10
30.88099687194381
 20
5.242760945643823
 30
0.0
 10
31.05422647709793
 20
4.92019797247238
 30
0.0
 10
31.26619979681664
 20
4.544206339742033
 30
0.0
 10
31.53518955602476
 20
4.090007407833383
 30
0.0
 10
31.80180808124487
 20
3.644258963724752
 30
0.0
 10
32.00415780823323
 20
3.293992502161728
 30
0.0
 10
32.1470615979365
 20
3.037016471765838
 30
0.0
 10
32.28091849161456
 20
2.782894738767283
 30
0.0
 10
32.40417451399617
 20
2.5313167123293
 30
0.0
 10
32.51540023589087
 20
2.281980563713461
 30
0.0
 10
32.61330910352672
 20
2.034537830316623
 30
0.0
 10
32.69675314814094
 20
1.788580617263761
 30
0.0
 10
32.74250170258119
 20
1.623651732876425
 30
0.0
 10
32.77790206622967
 20
1.47827654216897
 30
0.0
 10
32.80583298469128
 20
1.350056605778519
 30
0.0
 10
32.83924555888871
 20
1.154427303881477
 30
0.0
 10
32.86480103977783
 20
0.9541670623864604
 30
0.0
 10
32.88279944016858
 20
0.7495535990790643
 30
0.0
 10
32.89356268350411
 20
0.5409067070884532
 30
0.0
 10
32.89743710192806
 20
0.3285855794349857
 30
0.0
 10
32.89479589683788
 20
0.1129753260554764
 30
0.0
 10
32.88603976482
 20
-0.1055229654368475
 30
0.0
 10
32.86667445393095
 20
-0.401709743223563
 30
0.0
 10
32.82927068768049
 20
-0.7762081140142243
 30
0.0
 10
32.77799177576662
 20
-1.151914417526058
 30
0.0
 10
32.71173371226405
 20
-1.572587823079374
 30
0.0
 10
32.62910883911672
 20
-2.034366359112227
 30
0.0
 10
32.50902656995049
 20
-2.609582825545402
 30
0.0
 10
32.39631204848547
 20
-3.085023283967274
 30
0.0
 10
32.25992453596018
 20
-3.616032496559654
 30
0.0
 10
32.09541382435555
 20
-4.204162899502279
 30
0.0
 10
31.84395239285323
 20
-5.02650923450912
 30
0.0
 10
31.54610260728668
 20
-5.934284800148106
 30
0.0
 10
31.32097402613954
 20
-6.59468603082334
 30
0.0
 10
31.20782688415102
 20
-6.926611497822449
 30
0.0
  0
LINE
  5
2728
330
1F
100
AcDbEntity
  8
0
284
     3
100
AcDbLine
 10
26.39707765912181
 20
-13.24924887566587
 30
0.0
 11
26.39707765912362
 21
-7.249214736498033
 31
0.0
  0
LINE
  5
2729
330
1F
100
AcDbEntity
  8
0
284
     3
100
AcDbLine
 10
25.53831981377743
 20
-13.24924887566587
 30
0.0
 11
25.53831981377925
 21
-7.249214736498033
 31
0.0
  0
SPLINE
  5
272A
330
1F
100
AcDbEntity
  8
0
100
AcDbSpline
210
0.0
220
0.0
230
1.0
 70
     8
 71
     3
 72
     9
 73
     5
 74
     0
 42
0.000000001
 43
0.0
 40
14.62648478867551
 40
14.62648478867551
 40
14.62648478867551
 40
14.62648478867551
 40
15.55088765350542
 40
16.1750715269211
 40
16.1750715269211
 40
16.1750715269211
 40
16.1750715269211
 10
36.34115258254997
 20
-8.963710891225873
 30
0.0
 10
36.15321962822918
 20
-9.607268174943073
 30
0.0
 10
35.78439196180398
 20
-10.56084403881525
 30
0.0
 10
35.51501540168056
 20
-11.55652019513192
 30
0.0
 10
35.41324511985613
 20
-11.96072553524365
 30
0.0
  0
SPLINE
  5
272B
330
1F
100
AcDbEntity
  8
0
100
AcDbSpline
210
0.0
220
0.0
230
1.0
 70
     8
 71
     3
 72
    14
 73
    10
 74
     0
 42
0.000000001
 43
0.0
 40
15.04968176514306
 40
15.04968176514306
 40
15.04968176514306
 40
15.04968176514306
 40
15.24413072816976
 40
15.44310593469292
 40
15.73976688317027
 40
16.0403725391905
 40
16.32449089202706
 40
16.67688984371514
 40
16.8756106634264
 40
16.8756106634264
 40
16.8756106634264
 40
16.8756106634264
 10
35.79346390012915
 20
-8.697225675268982
 30
0.0
 10
35.7581803184944
 20
-8.821966722345422
 30
0.0
 10
35.68257320445036
 20
-9.073162360415807
 30
0.0
 10
35.53887053146855
 20
-9.51023180571994
 30
0.0
 10
35.36423786561545
 20
-10.01150341602099
 30
0.0
 10
35.17599048134389
 20
-10.56820304265895
 30
0.0
 10
34.99872319406813
 20
-11.16741840326424
 30
0.0
 10
34.85732523020079
 20
-11.70605641487666
 30
0.0
 10
34.76950409150368
 20
-12.06282302041129
 30
0.0
 10
34.7382469101608
 20
-12.19156410377965
 30
0.0
  0
SPLINE
  5
272C
330
1F
100
AcDbEntity
  8
0
100
AcDbSpline
210
0.0
220
0.0
230
1.0
 70
     8
 71
     3
 72
    10
 73
     6
 74
     0
 42
0.000000001
 43
0.0
 40
12.81614501930956
 40
12.81614501930956
 40
12.81614501930956
 40
12.81614501930956
 40
13.04186177298756
 40
14.10757052410187
 40
15.53943740885498
 40
15.53943740885498
 40
15.53943740885498
 40
15.53943740885498
 10
31.79564885858554
 20
-7.6629455082427
 30
0.0
 10
31.69381365170693
 20
-7.968148232594302
 30
0.0
 10
31.50476194663997
 20
-8.637800985219855
 30
0.0
 10
31.08571930435983
 20
-10.29518067156752
 30
0.0
 10
30.90044398046348
 20
-11.9089665155486
 30
0.0
 10
30.68028570240631
 20
-12.99231786747279
 30
0.0
  0
SPLINE
  5
272D
330
1F
100
AcDbEntity
  8
0
100
AcDbSpline
210
0.0
220
0.0
230
1.0
 70
     8
 71
     3
 72
    56
 73
    52
 74
     0
 42
0.000000001
 43
0.0
 40
0.0543379434346876
 40
0.0543379434346876
 40
0.0543379434346876
 40
0.0543379434346876
 40
0.0604215964867676
 40
0.0648200695153035
 40
0.0901369648190959
 40
0.0933433032852605
 40
0.1174830734604527
 40
0.1195799246063578
 40
0.1427068255318405
 40
0.1437531465409756
 40
0.1660565742576774
 40
0.1660789626904823
 40
0.1867629568335827
 40
0.2059969585019053
 40
0.2239564219461778
 40
0.2407998764520987
 40
0.2566720407795018
 40
0.2717117138292622
 40
0.2998945433386068
 40
0.3648873623765883
 40
0.4310854518971218
 40
0.4984120108395725
 40
0.5667911131274209
 40
0.6361476917212888
 40
0.7064075363958758
 40
0.7774973036135508
 40
0.8493445373675433
 40
0.921877700261829
 40
0.9950262144127069
 40
1.06872051202059
 40
1.142892095685534
 40
1.217473608737869
 40
1.292398916034934
 40
1.393169766559483
 40
1.493857652766269
 40
1.5946363529938
 40
1.695681817623704
 40
1.797172674179146
 40
1.899290674153769
 40
2.002221081298142
 40
2.106152999253332
 40
2.211279635218005
 40
2.317798496014645
 40
2.421784611159613
 40
2.42591153559407
 40
2.526737578557627
 40
2.535825184645131
 40
2.634078595969682
 40
2.647750326959336
 40
2.743941957879202
 40
2.761902216112992
 40
2.761902216112992
 40
2.761902216112992
 40
2.761902216112992
 10
31.19232303396302
 20
-7.576202780803413
 30
0.0
 10
31.19105709567202
 20
-7.580055918197303
 30
0.0
 10
31.18887790480812
 20
-7.586695531469303
 30
0.0
 10
31.18144775673636
 20
-7.609375466904311
 30
0.0
 10
31.17464784346839
 20
-7.630243368067312
 30
0.0
 10
31.16383059260215
 20
-7.66364405025044
 30
0.0
 10
31.15781582629052
 20
-7.682328488655656
 30
0.0
 10
31.14779437887
 20
-7.713674520090279
 30
0.0
 10
31.14249380955562
 20
-7.730366577851527
 30
0.0
 10
31.13318120746726
 20
-7.759918403934734
 30
0.0
 10
31.12852994700688
 20
-7.774789480846465
 30
0.0
 10
31.12003589697042
 20
-7.802175679989176
 30
0.0
 10
31.11220427890976
 20
-7.827624943032077
 30
0.0
 10
31.10103420944006
 20
-7.864557871712549
 30
0.0
 10
31.09077658993419
 20
-7.899091402097127
 30
0.0
 10
31.08131572769844
 20
-7.931523148014293
 30
0.0
 10
31.0725404207974
 20
-7.962126838328203
 30
0.0
 10
31.06183224593997
 20
-8.000040192766136
 30
0.0
 10
31.04255035841152
 20
-8.069559454087283
 30
0.0
 10
31.01442780083789
 20
-8.172019405356167
 30
0.0
 10
30.97988622366893
 20
-8.299777660998387
 30
0.0
 10
30.94529617437684
 20
-8.42986021825456
 30
0.0
 10
30.91075150871848
 20
-8.56213235526431
 30
0.0
 10
30.87634806785854
 20
-8.696460955994752
 30
0.0
 10
30.84218106937669
 20
-8.832713796422212
 30
0.0
 10
30.80834587866457
 20
-8.970759691741222
 30
0.0
 10
30.7749378522235
 20
-9.110468429911833
 30
0.0
 10
30.742052436221
 20
-9.251710783357538
 30
0.0
 10
30.70978519582559
 20
-9.394358516400843
 30
0.0
 10
30.67823187374916
 20
-9.538284410922387
 30
0.0
 10
30.64748842150175
 20
-9.68336229707549
 30
0.0
 10
30.61765113810497
 20
-9.829467114147263
 30
0.0
 10
30.58553576222175
 20
-9.993200765045202
 30
0.0
 10
30.55180262069598
 20
-10.17434607161269
 30
0.0
 10
30.5167403861883
 20
-10.37276583948571
 30
0.0
 10
30.48311600493753
 20
-10.57161919735174
 30
0.0
 10
30.45051494448717
 20
-10.7711845952924
 30
0.0
 10
30.41852669204627
 20
-10.97175288694709
 30
0.0
 10
30.38674510485316
 20
-11.17362599168538
 30
0.0
 10
30.35476826381591
 20
-11.37711573651333
 30
0.0
 10
30.32219815043163
 20
-11.58254257630344
 30
0.0
 10
30.288640126058
 20
-11.79023438879287
 30
0.0
 10
30.25415321155151
 20
-11.99781097793422
 30
0.0
 10
30.22989324979289
 20
-12.13882846674844
 30
0.0
 10
30.20579417102408
 20
-12.27602064073628
 30
0.0
 10
30.192383361054
 20
-12.35085648202787
 30
0.0
 10
30.16734614550887
 20
-12.48735729070242
 30
0.0
 10
30.15247165629762
 20
-12.56665053786784
 30
0.0
 10
30.12626339051394
 20
-12.70289719426202
 30
0.0
 10
30.03592926535975
 20
-13.06213550963977
 30
0.0
 10
30.04341219191656
 20
-13.0524612630272
 30
0.0
 10
30.04173384365959
 20
-13.06155949232536
 30
0.0
  0
SPLINE
  5
272E
330
1F
100
AcDbEntity
  8
0
100
AcDbSpline
210
0.0
220
0.0
230
1.0
 70
     8
 71
     3
 72
     9
 73
     5
 74
     0
 42
0.000000001
 43
0.0
 40
14.62648478867551
 40
14.62648478867551
 40
14.62648478867551
 40
14.62648478867551
 40
15.55088765350542
 40
16.1750715269211
 40
16.1750715269211
 40
16.1750715269211
 40
16.1750715269211
 10
15.59424489034927
 20
-8.963710891225873
 30
0.0
 10
15.78217784467006
 20
-9.607268174943073
 30
0.0
 10
16.15100551109526
 20
-10.56084403881525
 30
0.0
 10
16.42038207121868
 20
-11.55652019513192
 30
0.0
 10
16.52215235304311
 20
-11.96072553524365
 30
0.0
  0
SPLINE
  5
272F
330
1F
100
AcDbEntity
  8
0
100
AcDbSpline
210
0.0
220
0.0
230
1.0
 70
     8
 71
     3
 72
    14
 73
    10
 74
     0
 42
0.000000001
 43
0.0
 40
15.04968176514306
 40
15.04968176514306
 40
15.04968176514306
 40
15.04968176514306
 40
15.24413072816976
 40
15.44310593469292
 40
15.73976688317027
 40
16.0403725391905
 40
16.32449089202706
 40
16.67688984371514
 40
16.8756106634264
 40
16.8756106634264
 40
16.8756106634264
 40
16.8756106634264
 10
16.14193357277009
 20
-8.697225675268982
 30
0.0
 10
16.17721715440484
 20
-8.821966722345422
 30
0.0
 10
16.25282426844888
 20
-9.073162360415807
 30
0.0
 10
16.39652694143069
 20
-9.51023180571994
 30
0.0
 10
16.57115960728379
 20
-10.01150341602099
 30
0.0
 10
16.75940699155535
 20
-10.56820304265895
 30
0.0
 10
16.93667427883111
 20
-11.16741840326424
 30
0.0
 10
17.07807224269845
 20
-11.70605641487666
 30
0.0
 10
17.16589338139556
 20
-12.06282302041129
 30
0.0
 10
17.19715056273844
 20
-12.19156410377965
 30
0.0
  0
SPLINE
  5
2730
330
1F
100
AcDbEntity
  8
0
100
AcDbSpline
210
0.0
220
0.0
230
1.0
 70
     8
 71
     3
 72
    10
 73
     6
 74
     0
 42
0.000000001
 43
0.0
 40
12.81614501930956
 40
12.81614501930956
 40
12.81614501930956
 40
12.81614501930956
 40
13.04186177298756
 40
14.10757052410187
 40
15.53943740885498
 40
15.53943740885498
 40
15.53943740885498
 40
15.53943740885498
 10
20.1397486143137
 20
-7.6629455082427
 30
0.0
 10
20.24158382119231
 20
-7.968148232594302
 30
0.0
 10
20.43063552625927
 20
-8.637800985219855
 30
0.0
 10
20.84967816853941
 20
-10.29518067156752
 30
0.0
 10
21.03495349243576
 20
-11.9089665155486
 30
0.0
 10
21.25511177049293
 20
-12.99231786747279
 30
0.0
  0
SPLINE
  5
2731
330
1F
100
AcDbEntity
  8
0
100
AcDbSpline
210
0.0
220
0.0
230
1.0
 70
     8
 71
     3
 72
    56
 73
    52
 74
     0
 42
0.000000001
 43
0.0
 40
0.0543379434346876
 40
0.0543379434346876
 40
0.0543379434346876
 40
0.0543379434346876
 40
0.0604215964867676
 40
0.0648200695153035
 40
0.0901369648190959
 40
0.0933433032852605
 40
0.1174830734604527
 40
0.1195799246063578
 40
0.1427068255318405
 40
0.1437531465409756
 40
0.1660565742576774
 40
0.1660789626904823
 40
0.1867629568335827
 40
0.2059969585019053
 40
0.2239564219461778
 40
0.2407998764520987
 40
0.2566720407795018
 40
0.2717117138292622
 40
0.2998945433386068
 40
0.3648873623765883
 40
0.4310854518971218
 40
0.4984120108395725
 40
0.5667911131274209
 40
0.6361476917212888
 40
0.7064075363958758
 40
0.7774973036135508
 40
0.8493445373675433
 40
0.921877700261829
 40
0.9950262144127069
 40
1.06872051202059
 40
1.142892095685534
 40
1.217473608737869
 40
1.292398916034934
 40
1.393169766559483
 40
1.493857652766269
 40
1.5946363529938
 40
1.695681817623704
 40
1.797172674179146
 40
1.899290674153769
 40
2.002221081298142
 40
2.106152999253332
 40
2.211279635218005
 40
2.317798496014645
 40
2.421784611159613
 40
2.42591153559407
 40
2.526737578557627
 40
2.535825184645131
 40
2.634078595969682
 40
2.647750326959336
 40
2.743941957879202
 40
2.761902216112992
 40
2.761902216112992
 40
2.761902216112992
 40
2.761902216112992
 10
20.74307443893622
 20
-7.576202780803413
 30
0.0
 10
20.74434037722722
 20
-7.580055918197303
 30
0.0
 10
20.74651956809112
 20
-7.586695531469303
 30
0.0
 10
20.75394971616288
 20
-7.609375466904311
 30
0.0
 10
20.76074962943085
 20
-7.630243368067312
 30
0.0
 10
20.77156688029709
 20
-7.66364405025044
 30
0.0
 10
20.77758164660872
 20
-7.682328488655656
 30
0.0
 10
20.78760309402924
 20
-7.713674520090279
 30
0.0
 10
20.79290366334362
 20
-7.730366577851527
 30
0.0
 10
20.80221626543198
 20
-7.759918403934734
 30
0.0
 10
20.80686752589236
 20
-7.774789480846465
 30
0.0
 10
20.81536157592882
 20
-7.802175679989176
 30
0.0
 10
20.82319319398948
 20
-7.827624943032077
 30
0.0
 10
20.83436326345918
 20
-7.864557871712549
 30
0.0
 10
20.84462088296505
 20
-7.899091402097127
 30
0.0
 10
20.8540817452008
 20
-7.931523148014293
 30
0.0
 10
20.86285705210184
 20
-7.962126838328203
 30
0.0
 10
20.87356522695927
 20
-8.000040192766136
 30
0.0
 10
20.89284711448772
 20
-8.069559454087283
 30
0.0
 10
20.92096967206135
 20
-8.172019405356167
 30
0.0
 10
20.95551124923031
 20
-8.299777660998387
 30
0.0
 10
20.9901012985224
 20
-8.42986021825456
 30
0.0
 10
21.02464596418076
 20
-8.56213235526431
 30
0.0
 10
21.0590494050407
 20
-8.696460955994752
 30
0.0
 10
21.09321640352255
 20
-8.832713796422212
 30
0.0
 10
21.12705159423467
 20
-8.970759691741222
 30
0.0
 10
21.16045962067574
 20
-9.110468429911833
 30
0.0
 10
21.19334503667824
 20
-9.251710783357538
 30
0.0
 10
21.22561227707365
 20
-9.394358516400843
 30
0.0
 10
21.25716559915008
 20
-9.538284410922387
 30
0.0
 10
21.28790905139749
 20
-9.68336229707549
 30
0.0
 10
21.31774633479426
 20
-9.829467114147263
 30
0.0
 10
21.34986171067749
 20
-9.993200765045202
 30
0.0
 10
21.38359485220326
 20
-10.17434607161269
 30
0.0
 10
21.41865708671094
 20
-10.37276583948571
 30
0.0
 10
21.45228146796171
 20
-10.57161919735174
 30
0.0
 10
21.48488252841207
 20
-10.7711845952924
 30
0.0
 10
21.51687078085297
 20
-10.97175288694709
 30
0.0
 10
21.54865236804608
 20
-11.17362599168538
 30
0.0
 10
21.58062920908333
 20
-11.37711573651333
 30
0.0
 10
21.61319932246761
 20
-11.58254257630344
 30
0.0
 10
21.64675734684124
 20
-11.79023438879287
 30
0.0
 10
21.68124426134773
 20
-11.99781097793422
 30
0.0
 10
21.70550422310635
 20
-12.13882846674844
 30
0.0
 10
21.72960330187516
 20
-12.27602064073628
 30
0.0
 10
21.74301411184524
 20
-12.35085648202787
 30
0.0
 10
21.76805132739037
 20
-12.48735729070242
 30
0.0
 10
21.78292581660162
 20
-12.56665053786784
 30
0.0
 10
21.8091340823853
 20
-12.70289719426202
 30
0.0
 10
21.89946820753948
 20
-13.06213550963977
 30
0.0
 10
21.89198528098268
 20
-13.0524612630272
 30
0.0
 10
21.89366362923965
 20
-13.06155949232536
 30
0.0
  0
ARC
  5
2732
330
1F
100
AcDbEntity
  8
0
100
AcDbCircle
 10
25.96769873645053
 20
10.60948105423839
 30
0.0
 40
4.862592000000001
100
AcDbArc
 50
275.0659573962618
 51
283.0940390000086
  0
ARC
  5
2733
330
1F
100
AcDbEntity
  8
0
100
AcDbCircle
 10
25.92160850352366
 20
10.63092725609138
 30
0.0
 40
4.894086068929443
100
AcDbArc
 50
283.562719081883
 51
323.6899395560461
  0
ARC
  5
2734
330
1F
100
AcDbEntity
  8
0
100
AcDbCircle
 10
25.92160850352366
 20
10.63092725609138
 30
0.0
 40
4.894086068929443
100
AcDbArc
 50
336.3625871832916
 51
338.7352221720989
  0
ARC
  5
2735
330
1F
100
AcDbEntity
  8
0
100
AcDbCircle
 10
25.92160850352366
 20
10.63092725609138
 30
0.0
 40
4.894086068929443
100
AcDbArc
 50
347.0915765783973
 51
26.53132195294553
  0
ARC
  5
2736
330
1F
100
AcDbEntity
  8
0
100
AcDbCircle
 10
39.17806437685022
 20
19.18718320587712
 30
0.0
 40
10.92672307352466
100
AcDbArc
 50
200.4565257426873
 51
215.6608684421821
  0
ARC
  5
2737
330
1F
100
AcDbEntity
  8
0
100
AcDbCircle
 10
25.96769873645053
 20
10.60948105423839
 30
0.0
 40
4.862592000000001
100
AcDbArc
 50
153.0000000000021
 51
192.7641652739228
  0
ARC
  5
2738
330
1F
100
AcDbEntity
  8
0
100
AcDbCircle
 10
25.96769873645053
 20
10.60948105423839
 30
0.0
 40
4.862592000000001
100
AcDbArc
 50
201.1740420139519
 51
202.9422890000095
  0
ARC
  5
2739
330
1F
100
AcDbEntity
  8
0
100
AcDbCircle
 10
25.96769873645053
 20
10.60948105423839
 30
0.0
 40
4.862592000000132
100
AcDbArc
 50
216.5804345118642
 51
264.9340426038244
  0
ARC
  5
273A
330
1F
100
AcDbEntity
  8
0
100
AcDbCircle
 10
12.75733264371183
 20
19.18718330936534
 30
0.0
 40
10.92672353509811
100
AcDbArc
 50
324.3391315817065
 51
339.5434745460534
  0
ENDSEC
  0
SECTION
  2
OBJECTS
  0
DICTIONARY
  5
C
330
0
100
AcDbDictionary
281
     1
  3
ACAD_COLOR
350
1DDA
  3
ACAD_DETAILVIEWSTYLE
350
1DD7
  3
ACAD_DGNDEFINITIONS
350
1DDD
  3
ACAD_DWFDEFINITIONS
350
1DDC
  3
ACAD_GROUP
350
D
  3
ACAD_LAYOUT
350
1A
  3
ACAD_MATERIAL
350
1DBF
  3
ACAD_MLEADERSTYLE
350
1DCE
  3
ACAD_MLINESTYLE
350
17
  3
ACAD_PDFDEFINITIONS
350
1DDB
  3
ACAD_PLOTSETTINGS
350
19
  3
ACAD_PLOTSTYLENAME
350
E
  3
ACAD_SCALELIST
350
1DAD
  3
ACAD_SECTIONVIEWSTYLE
350
1DD8
  3
ACAD_TABLESTYLE
350
1DAC
  3
ACAD_VISUALSTYLE
350
2A
  3
ACDB_RECOMPOSE_DATA
350
273D
  3
AcDbVariableDictionary
350
1DD2
  0
SUN
  5
2519
330
29
100
AcDbSun
 90
        1
290
     0
 63
     7
421
 16777215
 40
1.0
291
     1
 91
  2455826
 92
 54000000
292
     0
 70
     2
 71
   256
280
     1
  0
DICTIONARY
  5
263B
330
2
100
AcDbDictionary
280
     1
281
     1
  3
ACAD_LAYERSTATES
360
263C
  0
DICTIONARY
  5
1FD5
330
1FD4
100
AcDbDictionary
280
     1
281
     1
  3
ADSK_XREC_LAYER_RECONCILED
360
1FD6
  0
DICTIONARY
  5
1DDA
102
{ACAD_REACTORS
330
C
102
}
330
C
100
AcDbDictionary
281
     1
  0
DICTIONARY
  5
1DD7
102
{ACAD_REACTORS
330
C
102
}
330
C
100
AcDbDictionary
281
     1
  0
DICTIONARY
  5
1DDD
102
{ACAD_REACTORS
330
C
102
}
330
C
100
AcDbDictionary
281
     1
  0
DICTIONARY
  5
1DDC
102
{ACAD_REACTORS
330
C
102
}
330
C
100
AcDbDictionary
281
     1
  0
DICTIONARY
  5
D
102
{ACAD_REACTORS
330
C
102
}
330
C
100
AcDbDictionary
281
     1
  0
DICTIONARY
  5
1A
102
{ACAD_REACTORS
330
C
102
}
330
C
100
AcDbDictionary
281
     1
  3
Layout1
350
1E
  3
Layout2
350
26
  3
Model
350
22
  0
DICTIONARY
  5
1DBF
102
{ACAD_REACTORS
330
C
102
}
330
C
100
AcDbDictionary
281
     1
  3
ByBlock
350
1DC1
  3
ByLayer
350
1DC0
  3
Global
350
1DC2
  0
DICTIONARY
  5
1DCE
102
{ACAD_REACTORS
330
C
102
}
330
C
100
AcDbDictionary
281
     1
  3
Standard
350
1DCF
  0
DICTIONARY
  5
17
102
{ACAD_REACTORS
330
C
102
}
330
C
100
AcDbDictionary
281
     1
  3
Standard
350
18
  0
DICTIONARY
  5
1DDB
102
{ACAD_REACTORS
330
C
102
}
330
C
100
AcDbDictionary
281
     1
  0
DICTIONARY
  5
19
102
{ACAD_REACTORS
330
C
102
}
330
C
100
AcDbDictionary
281
     1
  0
ACDBDICTIONARYWDFLT
  5
E
102
{ACAD_REACTORS
330
C
102
}
330
C
100
AcDbDictionary
281
     1
  3
Normal
350
F
100
AcDbDictionaryWithDefault
340
F
  0
DICTIONARY
  5
1DAD
102
{ACAD_REACTORS
330
C
102
}
330
C
100
AcDbDictionary
281
     1
  3
A0
350
1DAE
  3
B7
350
1DAF
  3
B8
350
1DB0
  3
B9
350
1DB1
  3
C0
350
1DB2
  3
C1
350
1DB3
  3
C2
350
1DB4
  3
C3
350
1DB5
  3
C4
350
1DB6
  3
C5
350
1DB7
  3
C6
350
1DB8
  3
C7
350
1DB9
  3
C8
350
1DBA
  3
C9
350
1DBB
  3
D0
350
1DBC
  3
D1
350
1DBD
  3
D2
350
1DBE
  0
DICTIONARY
  5
1DD8
102
{ACAD_REACTORS
330
C
102
}
330
C
100
AcDbDictionary
281
     1
  0
DICTIONARY
  5
1DAC
102
{ACAD_REACTORS
330
C
102
}
330
C
100
AcDbDictionary
281
     1
  3
Standard
350
1DCD
  0
DICTIONARY
  5
2A
102
{ACAD_REACTORS
330
C
102
}
330
C
100
AcDbDictionary
281
     1
  3
2dWireframe
350
2F
  3
3D Hidden
350
31
  3
3dWireframe
350
30
  3
Basic
350
32
  3
Brighten
350
36
  3
ColorChange
350
3A
  3
Conceptual
350
34
  3
Dim
350
35
  3
EdgeColorOff
350
1DC7
  3
Facepattern
350
39
  3
Flat
350
2B
  3
FlatWithEdges
350
2C
  3
Gouraud
350
2D
  3
GouraudWithEdges
350
2E
  3
Hidden
350
1DC4
  3
JitterOff
350
1DC5
  3
Linepattern
350
38
  3
OverhangOff
350
1DC6
  3
Realistic
350
33
  3
Shaded
350
1DCC
  3
Shaded with edges
350
1DCB
  3
Shades of Gray
350
1DC8
  3
Sketchy
350
1DC9
  3
Thicken
350
37
  3
Wireframe
350
1DC3
  3
X-Ray
350
1DCA
  0
XRECORD
  5
273D
102
{ACAD_REACTORS
330
C
102
}
330
C
100
AcDbXrecord
280
     1
 90
        1
330
1DCD
  0
DICTIONARY
  5
1DD2
102
{ACAD_REACTORS
330
C
102
}
330
C
100
AcDbDictionary
281
     1
  3
CANNOSCALE
350
1DD3
  3
CMLEADERSTYLE
350
1DD5
  3
CTABLESTYLE
350
1DD4
  3
MSLTSCALE
350
1DD6
  0
DICTIONARY
  5
263C
102
{ACAD_REACTORS
330
263B
102
}
330
263B
100
AcDbDictionary
281
     1
  0
XRECORD
  5
1FD6
102
{ACAD_REACTORS
330
1FD5
102
}
330
1FD5
100
AcDbXrecord
280
     1
290
     1
  0
LAYOUT
  5
1E
102
{ACAD_REACTORS
330
1A
102
}
330
1A
100
AcDbPlotSettings
  1

  2
none_device
  4

  6

 40
0.0
 41
0.0
 42
0.0
 43
0.0
 44
0.0
 45
0.0
 46
0.0
 47
0.0
 48
0.0
 49
0.0
140
0.0
141
0.0
142
1.0
143
1.0
 70
   688
 72
     0
 73
     0
 74
     5
  7

 75
    16
 76
     0
 77
     2
 78
   300
147
1.0
148
0.0
149
0.0
100
AcDbLayout
  1
Layout1
 70
     1
 71
     1
 10
0.0
 20
0.0
 11
12.0
 21
9.0
 12
0.0
 22
0.0
 32
0.0
 14
10.16135499139288
 24
-13.37478563542273
 34
0.0
 15
173.2462213479518
 25
104.0636864623765
 35
0.0
146
0.0
 13
0.0
 23
0.0
 33
0.0
 16
1.0
 26
0.0
 36
0.0
 17
0.0
 27
1.0
 37
0.0
 76
     0
330
1B
  0
LAYOUT
  5
26
102
{ACAD_REACTORS
330
1A
102
}
330
1A
100
AcDbPlotSettings
  1

  2
none_device
  4

  6

 40
0.0
 41
0.0
 42
0.0
 43
0.0
 44
0.0
 45
0.0
 46
0.0
 47
0.0
 48
0.0
 49
0.0
140
0.0
141
0.0
142
1.0
143
1.0
 70
   688
 72
     0
 73
     0
 74
     5
  7

 75
    16
 76
     0
 77
     2
 78
   300
147
1.0
148
0.0
149
0.0
100
AcDbLayout
  1
Layout2
 70
     1
 71
     2
 10
0.0
 20
0.0
 11
0.0
 21
0.0
 12
0.0
 22
0.0
 32
0.0
 14
0.0
 24
0.0
 34
0.0
 15
0.0
 25
0.0
 35
0.0
146
0.0
 13
0.0
 23
0.0
 33
0.0
 16
1.0
 26
0.0
 36
0.0
 17
0.0
 27
1.0
 37
0.0
 76
     0
330
23
  0
LAYOUT
  5
22
102
{ACAD_REACTORS
330
1A
102
}
330
1A
100
AcDbPlotSettings
  1

  2
RICOH RPCS V4 MP C5504 JPN
  4
A4
  6

 40
5.1
 41
5.1
 42
5.1
 43
5.1
 44
210.0
 45
297.0
 46
0.0
 47
0.0
 48
-432.832246648379
 49
-172.6325739850997
140
-223.8671692081869
141
-19.66660051336527
142
1.0
143
19.44612475566594
 70
  1712
 72
     0
 73
     1
 74
     4
  7

 75
     0
 76
     0
 77
     2
 78
   300
147
0.0514241275608722
148
10993.93906486883
149
4384.867379221533
100
AcDbLayout
  1
Model
 70
     1
 71
     0
 10
0.0
 20
0.0
 11
12.0
 21
9.0
 12
0.0
 22
0.0
 32
0.0
 14
-0.1510155761913339
 24
14.17073358405079
 34
0.0
 15
173.2462213479518
 25
112.8552498051348
 35
0.0
146
0.0
 13
0.0
 23
0.0
 33
0.0
 16
1.0
 26
0.0
 36
0.0
 17
0.0
 27
1.0
 37
0.0
 76
     0
330
1F
331
29
1001
ACAD_PSEXT
1000
RICOH RPCS V4 MP C5504 JPN
1000
RICOH RPCS V4 MP C5504 JPN
1000
192.168.200.100
1000

1070
     0
  0
MATERIAL
  5
1DC1
102
{ACAD_REACTORS
330
1DBF
102
}
330
1DBF
100
AcDbMaterial
  1
ByBlock
 72
     1
 94
      127
  0
MATERIAL
  5
1DC0
102
{ACAD_REACTORS
330
1DBF
102
}
330
1DBF
100
AcDbMaterial
  1
ByLayer
 72
     1
 94
      127
  0
MATERIAL
  5
1DC2
102
{ACAD_REACTORS
330
1DBF
102
}
330
1DBF
100
AcDbMaterial
  1
Global
 72
     1
 94
      127
  0
MLEADERSTYLE
  5
1DCF
102
{ACAD_REACTORS
330
1DCE
102
}
330
1DCE
100
AcDbMLeaderStyle
179
     2
170
     2
171
     1
172
     0
 90
        2
 40
0.0
 41
0.0
173
     1
 91
-1056964608
340
15
 92
       -2
290
     1
 42
0.09
291
     1
 43
0.36
  3
Standard
341
0
 44
0.18
300

342
11
174
     1
178
     6
175
     1
176
     0
 93
-1056964608
 45
0.18
292
     0
297
     0
 46
0.18
343
0
 94
-1056964608
 47
1.0
 49
1.0
140
1.0
293
     1
141
0.0
294
     1
177
     0
142
1.0
295
     0
296
     0
143
0.125
271
     0
272
     9
273
     9
298
     0
  0
MLINESTYLE
  5
18
102
{ACAD_REACTORS
330
17
102
}
330
17
100
AcDbMlineStyle
  2
Standard
 70
     0
  3

 62
   256
 51
90.0
 52
90.0
 71
     2
 49
0.5
 62
   256
  6
BYLAYER
 49
-0.5
 62
   256
  6
BYLAYER
  0
ACDBPLACEHOLDER
  5
F
102
{ACAD_REACTORS
330
E
102
}
330
E
  0
SCALE
  5
1DAE
102
{ACAD_REACTORS
330
1DAD
102
}
330
1DAD
100
AcDbScale
 70
     0
300
1:1
140
1.0
141
1.0
290
     1
  0
SCALE
  5
1DAF
102
{ACAD_REACTORS
330
1DAD
102
}
330
1DAD
100
AcDbScale
 70
     0
300
1/128" = 1'-0"
140
0.0078125
141
12.0
290
     0
  0
SCALE
  5
1DB0
102
{ACAD_REACTORS
330
1DAD
102
}
330
1DAD
100
AcDbScale
 70
     0
300
1/64" = 1'-0"
140
0.015625
141
12.0
290
     0
  0
SCALE
  5
1DB1
102
{ACAD_REACTORS
330
1DAD
102
}
330
1DAD
100
AcDbScale
 70
     0
300
1/32" = 1'-0"
140
0.03125
141
12.0
290
     0
  0
SCALE
  5
1DB2
102
{ACAD_REACTORS
330
1DAD
102
}
330
1DAD
100
AcDbScale
 70
     0
300
1/16" = 1'-0"
140
0.0625
141
12.0
290
     0
  0
SCALE
  5
1DB3
102
{ACAD_REACTORS
330
1DAD
102
}
330
1DAD
100
AcDbScale
 70
     0
300
3/32" = 1'-0"
140
0.09375
141
12.0
290
     0
  0
SCALE
  5
1DB4
102
{ACAD_REACTORS
330
1DAD
102
}
330
1DAD
100
AcDbScale
 70
     0
300
1/8" = 1'-0"
140
0.125
141
12.0
290
     0
  0
SCALE
  5
1DB5
102
{ACAD_REACTORS
330
1DAD
102
}
330
1DAD
100
AcDbScale
 70
     0
300
3/16" = 1'-0"
140
0.1875
141
12.0
290
     0
  0
SCALE
  5
1DB6
102
{ACAD_REACTORS
330
1DAD
102
}
330
1DAD
100
AcDbScale
 70
     0
300
1/4" = 1'-0"
140
0.25
141
12.0
290
     0
  0
SCALE
  5
1DB7
102
{ACAD_REACTORS
330
1DAD
102
}
330
1DAD
100
AcDbScale
 70
     0
300
3/8" = 1'-0"
140
0.375
141
12.0
290
     0
  0
SCALE
  5
1DB8
102
{ACAD_REACTORS
330
1DAD
102
}
330
1DAD
100
AcDbScale
 70
     0
300
1/2" = 1'-0"
140
0.5
141
12.0
290
     0
  0
SCALE
  5
1DB9
102
{ACAD_REACTORS
330
1DAD
102
}
330
1DAD
100
AcDbScale
 70
     0
300
3/4" = 1'-0"
140
0.75
141
12.0
290
     0
  0
SCALE
  5
1DBA
102
{ACAD_REACTORS
330
1DAD
102
}
330
1DAD
100
AcDbScale
 70
     0
300
1" = 1'-0"
140
1.0
141
12.0
290
     0
  0
SCALE
  5
1DBB
102
{ACAD_REACTORS
330
1DAD
102
}
330
1DAD
100
AcDbScale
 70
     0
300
1-1/2" = 1'-0"
140
1.5
141
12.0
290
     0
  0
SCALE
  5
1DBC
102
{ACAD_REACTORS
330
1DAD
102
}
330
1DAD
100
AcDbScale
 70
     0
300
3" = 1'-0"
140
3.0
141
12.0
290
     0
  0
SCALE
  5
1DBD
102
{ACAD_REACTORS
330
1DAD
102
}
330
1DAD
100
AcDbScale
 70
     0
300
6" = 1'-0"
140
6.0
141
12.0
290
     0
  0
SCALE
  5
1DBE
102
{ACAD_REACTORS
330
1DAD
102
}
330
1DAD
100
AcDbScale
 70
     0
300
1'-0" = 1'-0"
140
12.0
141
12.0
290
     0
  0
TABLESTYLE
  5
1DCD
102
{ACAD_REACTORS
330
1DAC
102
}
102
{ACAD_XDICTIONARY
360
273B
102
}
330
1DAC
100
AcDbTableStyle
  3
Standard
 70
     0
 71
     0
 40
0.06
 41
0.06
280
     0
281
     0
  7
Standard
140
0.18
170
     2
 62
     0
 63
   257
283
     0
 90
      512
 91
        0
  1

274
    -2
284
     1
 64
     0
275
    -2
285
     1
 65
     0
276
    -2
286
     1
 66
     0
277
    -2
287
     1
 67
     0
278
    -2
288
     1
 68
     0
279
    -2
289
     1
 69
     0
  7
Standard
140
0.25
170
     5
 62
     0
 63
   257
283
     0
 90
      512
 91
        0
  1

274
    -2
284
     1
 64
     0
275
    -2
285
     1
 65
     0
276
    -2
286
     1
 66
     0
277
    -2
287
     1
 67
     0
278
    -2
288
     1
 68
     0
279
    -2
289
     1
 69
     0
  7
Standard
140
0.18
170
     5
 62
     0
 63
   257
283
     0
 90
      512
 91
        0
  1

274
    -2
284
     1
 64
     0
275
    -2
285
     1
 65
     0
276
    -2
286
     1
 66
     0
277
    -2
287
     1
 67
     0
278
    -2
288
     1
 68
     0
279
    -2
289
     1
 69
     0
  0
VISUALSTYLE
  5
2F
102
{ACAD_REACTORS
330
2A
102
}
330
2A
100
AcDbVisualStyle
  2
2dWireframe
 70
     4
177
     3
291
     0
 70
    58
 90
        0
176
     1
 90
        2
176
     1
 90
        0
176
     1
 90
        0
176
     1
 40
-0.6
176
     1
 40
-30.0
176
     1
 62
     7
176
     1
 90
        1
176
     1
 90
        4
176
     1
 62
     7
176
     1
 62
   257
176
     1
 90
        1
176
     1
 90
        1
176
     1
 40
1.0
176
     1
 90
        0
176
     1
 62
   257
176
     1
 40
1.0
176
     1
 90
        1
176
     1
 90
        6
176
     1
 90
        2
176
     1
 62
     7
176
     1
 90
        5
176
     1
 90
        0
176
     1
 90
        0
176
     1
290
     0
176
     1
 90
        1
176
     1
 40
0.0
176
     1
 90
        0
176
     1
290
     1
176
     1
290
     1
176
     1
290
     0
176
     1
290
     0
176
     1
290
     0
176
     1
290
     0
176
     1
290
     0
176
     1
290
     0
176
     1
290
     0
176
     1
 90
       50
176
     1
 40
0.0
176
     1
 40
1.0
176
     1
 90
        0
176
     1
 62
    18
420
        0
176
     1
 90
       50
176
     1
 90
        3
176
     1
 62
     5
420
      255
176
     1
290
     0
176
     1
 90
       50
176
     1
 90
       50
176
     1
 90
       50
176
     1
290
     0
176
     1
 90
       50
176
     1
 62
   256
176
     0
 40
1.0
176
     0
 90
        2
176
     1
  1
strokes_ogs.tif
176
     1
290
     0
176
     1
 40
1.0
176
     1
 40
1.0
176
     1
  0
VISUALSTYLE
  5
31
102
{ACAD_REACTORS
330
2A
102
}
330
2A
100
AcDbVisualStyle
  2
3D Hidden
 70
     6
177
     3
291
     0
 70
    58
 90
        1
176
     1
 90
        2
176
     1
 90
        2
176
     1
 90
        0
176
     1
 40
-0.6
176
     1
 40
-30.0
176
     1
 62
     7
176
     1
 90
        2
176
     1
 90
        2
176
     1
 62
     7
176
     1
 62
   257
176
     1
 90
        2
176
     1
 90
        1
176
     1
 40
40.0
176
     1
 90
        0
176
     1
 62
   257
176
     1
 40
1.0
176
     1
 90
        1
176
     1
 90
        6
176
     1
 90
        2
176
     1
 62
     7
176
     1
 90
        3
176
     1
 90
        0
176
     1
 90
        0
176
     1
290
     0
176
     1
 90
        1
176
     1
 40
0.0
176
     1
 90
        0
176
     1
290
     0
176
     1
290
     1
176
     1
290
     1
176
     1
290
     0
176
     1
290
     0
176
     1
290
     0
176
     1
290
     0
176
     1
290
     0
176
     1
290
     0
176
     1
 90
       50
176
     1
 40
0.0
176
     1
 40
1.0
176
     1
 90
        0
176
     1
 62
    18
420
        0
176
     1
 90
       50
176
     1
 90
        3
176
     1
 62
     5
420
      255
176
     1
290
     0
176
     1
 90
       50
176
     1
 90
       50
176
     1
 90
       50
176
     1
290
     0
176
     1
 90
       50
176
     1
 62
   256
176
     0
 40
1.0
176
     0
 90
        2
176
     1
  1
strokes_ogs.tif
176
     1
290
     0
176
     1
 40
1.0
176
     1
 40
1.0
176
     1
  0
VISUALSTYLE
  5
30
102
{ACAD_REACTORS
330
2A
102
}
330
2A
100
AcDbVisualStyle
  2
3dWireframe
 70
     5
177
     3
291
     0
 70
    58
 90
        0
176
     1
 90
        2
176
     1
 90
        0
176
     1
 90
        0
176
     1
 40
-0.6
176
     1
 40
-30.0
176
     1
 62
     7
176
     1
 90
        1
176
     1
 90
        4
176
     1
 62
     7
176
     1
 62
   257
176
     1
 90
        1
176
     1
 90
        1
176
     1
 40
1.0
176
     1
 90
        0
176
     1
 62
   257
176
     1
 40
1.0
176
     1
 90
        1
176
     1
 90
        6
176
     1
 90
        2
176
     1
 62
     7
176
     1
 90
        5
176
     1
 90
        0
176
     1
 90
        0
176
     1
290
     0
176
     1
 90
        1
176
     1
 40
0.0
176
     1
 90
        0
176
     1
290
     0
176
     1
290
     1
176
     1
290
     1
176
     1
290
     0
176
     1
290
     0
176
     1
290
     0
176
     1
290
     0
176
     1
290
     0
176
     1
290
     0
176
     1
 90
       50
176
     1
 40
0.0
176
     1
 40
1.0
176
     1
 90
        0
176
     1
 62
    18
420
        0
176
     1
 90
       50
176
     1
 90
        3
176
     1
 62
     5
420
      255
176
     1
290
     0
176
     1
 90
       50
176
     1
 90
       50
176
     1
 90
       50
176
     1
290
     0
176
     1
 90
       50
176
     1
 62
   256
176
     0
 40
1.0
176
     0
 90
        2
176
     1
  1
strokes_ogs.tif
176
     1
290
     0
176
     1
 40
1.0
176
     1
 40
1.0
176
     1
  0
VISUALSTYLE
  5
32
102
{ACAD_REACTORS
330
2A
102
}
330
2A
100
AcDbVisualStyle
  2
Basic
 70
     7
177
     3
291
     1
 70
    58
 90
        1
176
     1
 90
        0
176
     1
 90
        1
176
     1
 90
        0
176
     1
 40
-0.6
176
     1
 40
-30.0
176
     1
 62
     7
176
     1
 90
        0
176
     1
 90
        4
176
     1
 62
     7
176
     1
 62
   257
176
     1
 90
        1
176
     1
 90
        1
176
     1
 40
1.0
176
     1
 90
        8
176
     1
 62
     7
176
     1
 40
1.0
176
     1
 90
        1
176
     1
 90
        6
176
     1
 90
        2
176
     1
 62
     7
176
     1
 90
        5
176
     1
 90
        0
176
     1
 90
        0
176
     1
290
     0
176
     1
 90
        1
176
     1
 40
0.0
176
     1
 90
        0
176
     1
290
     0
176
     1
290
     1
176
     1
290
     1
176
     1
290
     0
176
     1
290
     0
176
     1
290
     0
176
     1
290
     0
176
     1
290
     0
176
     1
290
     0
176
     1
 90
       50
176
     1
 40
0.0
176
     1
 40
1.0
176
     1
 90
        0
176
     1
 62
    18
420
        0
176
     1
 90
       50
176
     1
 90
        3
176
     1
 62
     5
420
      255
176
     1
290
     0
176
     1
 90
       50
176
     1
 90
       50
176
     1
 90
       50
176
     1
290
     0
176
     1
 90
       50
176
     1
 62
   256
176
     0
 40
1.0
176
     0
 90
        2
176
     1
  1
strokes_ogs.tif
176
     1
290
     0
176
     1
 40
1.0
176
     1
 40
1.0
176
     1
  0
VISUALSTYLE
  5
36
102
{ACAD_REACTORS
330
2A
102
}
330
2A
100
AcDbVisualStyle
  2
Brighten
 70
    12
177
     3
291
     1
 70
    58
 90
        2
176
     1
 90
        2
176
     1
 90
        0
176
     1
 90
        0
176
     1
 40
-0.6
176
     1
 40
-30.0
176
     1
 62
     7
176
     1
 90
        1
176
     1
 90
        4
176
     1
 62
     7
176
     1
 62
   257
176
     1
 90
        1
176
     1
 90
        1
176
     1
 40
1.0
176
     1
 90
        8
176
     1
 62
     7
176
     1
 40
1.0
176
     1
 90
        1
176
     1
 90
        6
176
     1
 90
        2
176
     1
 62
     7
176
     1
 90
        5
176
     1
 90
        0
176
     1
 90
        0
176
     1
290
     0
176
     1
 90
        1
176
     1
 40
50.0
176
     1
 90
        0
176
     1
290
     0
176
     1
290
     1
176
     1
290
     1
176
     1
290
     0
176
     1
290
     0
176
     1
290
     0
176
     1
290
     0
176
     1
290
     0
176
     1
290
     0
176
     1
 90
       50
176
     1
 40
0.0
176
     1
 40
1.0
176
     1
 90
        0
176
     1
 62
    18
420
        0
176
     1
 90
       50
176
     1
 90
        3
176
     1
 62
     5
420
      255
176
     1
290
     0
176
     1
 90
       50
176
     1
 90
       50
176
     1
 90
       50
176
     1
290
     0
176
     1
 90
       50
176
     1
 62
   256
176
     0
 40
1.0
176
     0
 90
        2
176
     1
  1
strokes_ogs.tif
176
     1
290
     0
176
     1
 40
1.0
176
     1
 40
1.0
176
     1
  0
VISUALSTYLE
  5
3A
102
{ACAD_REACTORS
330
2A
102
}
330
2A
100
AcDbVisualStyle
  2
ColorChange
 70
    16
177
     3
291
     1
 70
    58
 90
        2
176
     1
 90
        2
176
     1
 90
        3
176
     1
 90
        0
176
     1
 40
-0.6
176
     1
 40
-30.0
176
     1
 62
     8
176
     1
 90
        1
176
     1
 90
        4
176
     1
 62
     7
176
     1
 62
   257
176
     1
 90
        1
176
     1
 90
        1
176
     1
 40
1.0
176
     1
 90
        8
176
     1
 62
     8
176
     1
 40
1.0
176
     1
 90
        1
176
     1
 90
        6
176
     1
 90
        2
176
     1
 62
     7
176
     1
 90
        5
176
     1
 90
        0
176
     1
 90
        0
176
     1
290
     0
176
     1
 90
        1
176
     1
 40
0.0
176
     1
 90
        0
176
     1
290
     0
176
     1
290
     1
176
     1
290
     1
176
     1
290
     0
176
     1
290
     0
176
     1
290
     0
176
     1
290
     0
176
     1
290
     0
176
     1
290
     0
176
     1
 90
       50
176
     1
 40
0.0
176
     1
 40
1.0
176
     1
 90
        0
176
     1
 62
    18
420
        0
176
     1
 90
       50
176
     1
 90
        3
176
     1
 62
     5
420
      255
176
     1
290
     0
176
     1
 90
       50
176
     1
 90
       50
176
     1
 90
       50
176
     1
290
     0
176
     1
 90
       50
176
     1
 62
   256
176
     0
 40
1.0
176
     0
 90
        2
176
     1
  1
strokes_ogs.tif
176
     1
290
     0
176
     1
 40
1.0
176
     1
 40
1.0
176
     1
  0
VISUALSTYLE
  5
34
102
{ACAD_REACTORS
330
2A
102
}
330
2A
100
AcDbVisualStyle
  2
Conceptual
 70
     9
177
     3
291
     0
 70
    58
 90
        3
176
     1
 90
        2
176
     1
 90
        0
176
     1
 90
        0
176
     1
 40
-0.6
176
     1
 40
-30.0
176
     1
 62
     7
176
     1
 90
        2
176
     1
 90
        2
176
     1
 62
     7
176
     1
 62
   257
176
     1
 90
        1
176
     1
 90
        1
176
     1
 40
40.0
176
     1
 90
        8
176
     1
 62
     7
176
     1
 40
1.0
176
     1
 90
        1
176
     1
 90
        6
176
     1
 90
        2
176
     1
 62
     7
176
     1
 90
        3
176
     1
 90
        0
176
     1
 90
        0
176
     1
290
     0
176
     1
 90
        1
176
     1
 40
0.0
176
     1
 90
        0
176
     1
290
     0
176
     1
290
     1
176
     1
290
     1
176
     1
290
     0
176
     1
290
     0
176
     1
290
     0
176
     1
290
     0
176
     1
290
     0
176
     1
290
     0
176
     1
 90
       50
176
     1
 40
0.0
176
     1
 40
1.0
176
     1
 90
        0
176
     1
 62
    18
420
        0
176
     1
 90
       50
176
     1
 90
        3
176
     1
 62
     5
420
      255
176
     1
290
     0
176
     1
 90
       50
176
     1
 90
       50
176
     1
 90
       50
176
     1
290
     0
176
     1
 90
       50
176
     1
 62
   256
176
     0
 40
1.0
176
     0
 90
        2
176
     1
  1
strokes_ogs.tif
176
     1
290
     0
176
     1
 40
1.0
176
     1
 40
1.0
176
     1
  0
VISUALSTYLE
  5
35
102
{ACAD_REACTORS
330
2A
102
}
330
2A
100
AcDbVisualStyle
  2
Dim
 70
    11
177
     3
291
     1
 70
    58
 90
        2
176
     1
 90
        2
176
     1
 90
        0
176
     1
 90
        0
176
     1
 40
-0.6
176
     1
 40
-30.0
176
     1
 62
     7
176
     1
 90
        1
176
     1
 90
        4
176
     1
 62
     7
176
     1
 62
   257
176
     1
 90
        1
176
     1
 90
        1
176
     1
 40
1.0
176
     1
 90
        8
176
     1
 62
     7
176
     1
 40
1.0
176
     1
 90
        1
176
     1
 90
        6
176
     1
 90
        2
176
     1
 62
     7
176
     1
 90
        5
176
     1
 90
        0
176
     1
 90
        0
176
     1
290
     0
176
     1
 90
        1
176
     1
 40
-50.0
176
     1
 90
        0
176
     1
290
     0
176
     1
290
     1
176
     1
290
     1
176
     1
290
     0
176
     1
290
     0
176
     1
290
     0
176
     1
290
     0
176
     1
290
     0
176
     1
290
     0
176
     1
 90
       50
176
     1
 40
0.0
176
     1
 40
1.0
176
     1
 90
        0
176
     1
 62
    18
420
        0
176
     1
 90
       50
176
     1
 90
        3
176
     1
 62
     5
420
      255
176
     1
290
     0
176
     1
 90
       50
176
     1
 90
       50
176
     1
 90
       50
176
     1
290
     0
176
     1
 90
       50
176
     1
 62
   256
176
     0
 40
1.0
176
     0
 90
        2
176
     1
  1
strokes_ogs.tif
176
     1
290
     0
176
     1
 40
1.0
176
     1
 40
1.0
176
     1
  0
VISUALSTYLE
  5
1DC7
102
{ACAD_REACTORS
330
2A
102
}
330
2A
100
AcDbVisualStyle
  2
EdgeColorOff
 70
    22
177
     3
291
     1
 70
    58
 90
        2
176
     0
 90
        2
176
     0
 90
        0
176
     0
 90
        0
176
     0
 40
0.6
176
     0
 40
30.0
176
     0
 62
     7
420
 16777215
176
     0
 90
        1
176
     0
 90
        4
176
     0
 62
     7
176
     0
 62
   257
176
     0
 90
        1
176
     0
 90
        1
176
     0
 40
1.0
176
     0
 90
        8
176
     0
 62
     7
176
     0
 40
1.0
176
     0
 90
        1
176
     0
 90
        6
176
     0
 90
        2
176
     0
 62
     7
176
     0
 90
        5
176
     0
 90
        0
176
     0
 90
        0
176
     0
290
     0
176
     0
 90
        1
176
     0
 40
0.0
176
     0
 90
        0
176
     0
290
     0
176
     1
290
     1
176
     1
290
     1
176
     1
290
     0
176
     1
290
     0
176
     1
290
     0
176
     1
290
     0
176
     1
290
     0
176
     1
290
     0
176
     1
 90
       50
176
     1
 40
0.0
176
     1
 40
1.0
176
     1
 90
        0
176
     1
 62
    18
420
        0
176
     1
 90
       50
176
     1
 90
        3
176
     1
 62
     5
420
      255
176
     1
290
     0
176
     1
 90
       50
176
     1
 90
       50
176
     1
 90
       50
176
     1
290
     0
176
     1
 90
       50
176
     1
 62
   256
176
     0
 40
1.0
176
     0
 90
        2
176
     1
  1
strokes_ogs.tif
176
     1
290
     0
176
     1
 40
1.0
176
     1
 40
1.0
176
     1
  0
VISUALSTYLE
  5
39
102
{ACAD_REACTORS
330
2A
102
}
330
2A
100
AcDbVisualStyle
  2
Facepattern
 70
    15
177
     3
291
     1
 70
    58
 90
        2
176
     1
 90
        2
176
     1
 90
        0
176
     1
 90
        0
176
     1
 40
-0.6
176
     1
 40
-30.0
176
     1
 62
     7
176
     1
 90
        1
176
     1
 90
        4
176
     1
 62
     7
176
     1
 62
   257
176
     1
 90
        1
176
     1
 90
        1
176
     1
 40
1.0
176
     1
 90
        8
176
     1
 62
     7
176
     1
 40
1.0
176
     1
 90
        1
176
     1
 90
        6
176
     1
 90
        2
176
     1
 62
     7
176
     1
 90
        5
176
     1
 90
        0
176
     1
 90
        0
176
     1
290
     0
176
     1
 90
        1
176
     1
 40
0.0
176
     1
 90
        0
176
     1
290
     0
176
     1
290
     1
176
     1
290
     1
176
     1
290
     0
176
     1
290
     0
176
     1
290
     0
176
     1
290
     0
176
     1
290
     0
176
     1
290
     0
176
     1
 90
       50
176
     1
 40
0.0
176
     1
 40
1.0
176
     1
 90
        0
176
     1
 62
    18
420
        0
176
     1
 90
       50
176
     1
 90
        3
176
     1
 62
     5
420
      255
176
     1
290
     0
176
     1
 90
       50
176
     1
 90
       50
176
     1
 90
       50
176
     1
290
     0
176
     1
 90
       50
176
     1
 62
   256
176
     0
 40
1.0
176
     0
 90
        2
176
     1
  1
strokes_ogs.tif
176
     1
290
     0
176
     1
 40
1.0
176
     1
 40
1.0
176
     1
  0
VISUALSTYLE
  5
2B
102
{ACAD_REACTORS
330
2A
102
}
330
2A
100
AcDbVisualStyle
  2
Flat
 70
     0
177
     3
291
     1
 70
    58
 90
        2
176
     1
 90
        1
176
     1
 90
        1
176
     1
 90
        2
176
     1
 40
-0.6
176
     1
 40
30.0
176
     1
 62
     7
176
     1
 90
        0
176
     1
 90
        4
176
     1
 62
     7
176
     1
 62
   257
176
     1
 90
        1
176
     1
 90
        1
176
     1
 40
1.0
176
     1
 90
        8
176
     1
 62
     7
176
     1
 40
1.0
176
     1
 90
        1
176
     1
 90
        6
176
     1
 90
        2
176
     1
 62
     7
176
     1
 90
        5
176
     1
 90
        0
176
     1
 90
        0
176
     1
290
     0
176
     1
 90
       13
176
     1
 40
0.0
176
     1
 90
        0
176
     1
290
     0
176
     1
290
     1
176
     1
290
     1
176
     1
290
     0
176
     1
290
     0
176
     1
290
     0
176
     1
290
     0
176
     1
290
     0
176
     1
290
     0
176
     1
 90
       50
176
     1
 40
0.0
176
     1
 40
1.0
176
     1
 90
        0
176
     1
 62
    18
420
        0
176
     1
 90
       50
176
     1
 90
        3
176
     1
 62
     5
420
      255
176
     1
290
     0
176
     1
 90
       50
176
     1
 90
       50
176
     1
 90
       50
176
     1
290
     0
176
     1
 90
       50
176
     1
 62
   256
176
     0
 40
1.0
176
     0
 90
        2
176
     1
  1
strokes_ogs.tif
176
     1
290
     0
176
     1
 40
1.0
176
     1
 40
1.0
176
     1
  0
VISUALSTYLE
  5
2C
102
{ACAD_REACTORS
330
2A
102
}
330
2A
100
AcDbVisualStyle
  2
FlatWithEdges
 70
     1
177
     3
291
     1
 70
    58
 90
        2
176
     1
 90
        1
176
     1
 90
        1
176
     1
 90
        2
176
     1
 40
-0.6
176
     1
 40
30.0
176
     1
 62
     7
176
     1
 90
        1
176
     1
 90
        4
176
     1
 62
     7
176
     1
 62
   257
176
     1
 90
        1
176
     1
 90
        1
176
     1
 40
1.0
176
     1
 90
        0
176
     1
 62
   257
176
     1
 40
1.0
176
     1
 90
        1
176
     1
 90
        6
176
     1
 90
        2
176
     1
 62
     7
176
     1
 90
        5
176
     1
 90
        0
176
     1
 90
        0
176
     1
290
     0
176
     1
 90
       13
176
     1
 40
0.0
176
     1
 90
        0
176
     1
290
     0
176
     1
290
     1
176
     1
290
     1
176
     1
290
     0
176
     1
290
     0
176
     1
290
     0
176
     1
290
     0
176
     1
290
     0
176
     1
290
     0
176
     1
 90
       50
176
     1
 40
0.0
176
     1
 40
1.0
176
     1
 90
        0
176
     1
 62
    18
420
        0
176
     1
 90
       50
176
     1
 90
        3
176
     1
 62
     5
420
      255
176
     1
290
     0
176
     1
 90
       50
176
     1
 90
       50
176
     1
 90
       50
176
     1
290
     0
176
     1
 90
       50
176
     1
 62
   256
176
     0
 40
1.0
176
     0
 90
        2
176
     1
  1
strokes_ogs.tif
176
     1
290
     0
176
     1
 40
1.0
176
     1
 40
1.0
176
     1
  0
VISUALSTYLE
  5
2D
102
{ACAD_REACTORS
330
2A
102
}
330
2A
100
AcDbVisualStyle
  2
Gouraud
 70
     2
177
     3
291
     1
 70
    58
 90
        2
176
     1
 90
        2
176
     1
 90
        1
176
     1
 90
        2
176
     1
 40
-0.6
176
     1
 40
30.0
176
     1
 62
     7
176
     1
 90
        0
176
     1
 90
        4
176
     1
 62
     7
176
     1
 62
   257
176
     1
 90
        1
176
     1
 90
        1
176
     1
 40
1.0
176
     1
 90
        0
176
     1
 62
     7
176
     1
 40
1.0
176
     1
 90
        1
176
     1
 90
        6
176
     1
 90
        2
176
     1
 62
     7
176
     1
 90
        5
176
     1
 90
        0
176
     1
 90
        0
176
     1
290
     0
176
     1
 90
       13
176
     1
 40
0.0
176
     1
 90
        0
176
     1
290
     0
176
     1
290
     1
176
     1
290
     1
176
     1
290
     0
176
     1
290
     0
176
     1
290
     0
176
     1
290
     0
176
     1
290
     0
176
     1
290
     0
176
     1
 90
       50
176
     1
 40
0.0
176
     1
 40
1.0
176
     1
 90
        0
176
     1
 62
    18
420
        0
176
     1
 90
       50
176
     1
 90
        3
176
     1
 62
     5
420
      255
176
     1
290
     0
176
     1
 90
       50
176
     1
 90
       50
176
     1
 90
       50
176
     1
290
     0
176
     1
 90
       50
176
     1
 62
   256
176
     0
 40
1.0
176
     0
 90
        2
176
     1
  1
strokes_ogs.tif
176
     1
290
     0
176
     1
 40
1.0
176
     1
 40
1.0
176
     1
  0
VISUALSTYLE
  5
2E
102
{ACAD_REACTORS
330
2A
102
}
330
2A
100
AcDbVisualStyle
  2
GouraudWithEdges
 70
     3
177
     3
291
     1
 70
    58
 90
        2
176
     1
 90
        2
176
     1
 90
        1
176
     1
 90
        2
176
     1
 40
-0.6
176
     1
 40
30.0
176
     1
 62
     7
176
     1
 90
        1
176
     1
 90
        4
176
     1
 62
     7
176
     1
 62
   257
176
     1
 90
        1
176
     1
 90
        1
176
     1
 40
1.0
176
     1
 90
        0
176
     1
 62
   257
176
     1
 40
1.0
176
     1
 90
        1
176
     1
 90
        6
176
     1
 90
        2
176
     1
 62
     7
176
     1
 90
        5
176
     1
 90
        0
176
     1
 90
        0
176
     1
290
     0
176
     1
 90
       13
176
     1
 40
0.0
176
     1
 90
        0
176
     1
290
     0
176
     1
290
     1
176
     1
290
     1
176
     1
290
     0
176
     1
290
     0
176
     1
290
     0
176
     1
290
     0
176
     1
290
     0
176
     1
290
     0
176
     1
 90
       50
176
     1
 40
0.0
176
     1
 40
1.0
176
     1
 90
        0
176
     1
 62
    18
420
        0
176
     1
 90
       50
176
     1
 90
        3
176
     1
 62
     5
420
      255
176
     1
290
     0
176
     1
 90
       50
176
     1
 90
       50
176
     1
 90
       50
176
     1
290
     0
176
     1
 90
       50
176
     1
 62
   256
176
     0
 40
1.0
176
     0
 90
        2
176
     1
  1
strokes_ogs.tif
176
     1
290
     0
176
     1
 40
1.0
176
     1
 40
1.0
176
     1
  0
VISUALSTYLE
  5
1DC4
102
{ACAD_REACTORS
330
2A
102
}
330
2A
100
AcDbVisualStyle
  2
Hidden
 70
     6
177
     3
291
     0
 70
    58
 90
        1
176
     1
 90
        2
176
     1
 90
        2
176
     1
 90
        0
176
     1
 40
0.6
176
     1
 40
30.0
176
     1
 62
     7
420
 16777215
176
     1
 90
        2
176
     1
 90
        2
176
     1
 62
     7
176
     1
 62
   257
176
     1
 90
        2
176
     1
 90
        1
176
     1
 40
40.0
176
     1
 90
        0
176
     1
 62
   257
176
     1
 40
1.0
176
     1
 90
        1
176
     1
 90
        6
176
     1
 90
        2
176
     1
 62
     7
176
     1
 90
        3
176
     1
 90
        0
176
     1
 90
        0
176
     1
290
     0
176
     1
 90
        1
176
     1
 40
0.0
176
     1
 90
        0
176
     1
290
     0
176
     1
290
     1
176
     1
290
     1
176
     1
290
     0
176
     1
290
     0
176
     1
290
     0
176
     1
290
     0
176
     1
290
     0
176
     1
290
     0
176
     1
 90
       50
176
     1
 40
0.0
176
     1
 40
1.0
176
     1
 90
        0
176
     1
 62
    18
420
        0
176
     1
 90
       50
176
     1
 90
        3
176
     1
 62
     5
420
      255
176
     1
290
     0
176
     1
 90
       50
176
     1
 90
       50
176
     1
 90
       50
176
     1
290
     0
176
     1
 90
       50
176
     1
 62
   256
176
     0
 40
1.0
176
     0
 90
        2
176
     1
  1
strokes_ogs.tif
176
     1
290
     0
176
     1
 40
1.0
176
     1
 40
1.0
176
     1
  0
VISUALSTYLE
  5
1DC5
102
{ACAD_REACTORS
330
2A
102
}
330
2A
100
AcDbVisualStyle
  2
JitterOff
 70
    20
177
     3
291
     1
 70
    58
 90
        2
176
     0
 90
        2
176
     0
 90
        0
176
     0
 90
        0
176
     0
 40
0.6
176
     0
 40
30.0
176
     0
 62
     7
420
 16777215
176
     0
 90
        1
176
     0
 90
        4
176
     0
 62
     7
176
     0
 62
   257
176
     0
 90
        1
176
     0
 90
        1
176
     0
 40
1.0
176
     0
 90
       10
176
     0
 62
     7
176
     0
 40
1.0
176
     0
 90
        1
176
     0
 90
        6
176
     0
 90
        2
176
     0
 62
     7
176
     0
 90
        5
176
     0
 90
        0
176
     0
 90
        0
176
     0
290
     0
176
     0
 90
        1
176
     0
 40
0.0
176
     0
 90
        0
176
     0
290
     0
176
     1
290
     1
176
     1
290
     1
176
     1
290
     0
176
     1
290
     0
176
     1
290
     0
176
     1
290
     0
176
     1
290
     0
176
     1
290
     0
176
     1
 90
       50
176
     1
 40
0.0
176
     1
 40
1.0
176
     1
 90
        0
176
     1
 62
    18
420
        0
176
     1
 90
       50
176
     1
 90
        3
176
     1
 62
     5
420
      255
176
     1
290
     0
176
     1
 90
       50
176
     1
 90
       50
176
     1
 90
       50
176
     1
290
     0
176
     1
 90
       50
176
     1
 62
   256
176
     0
 40
1.0
176
     0
 90
        2
176
     1
  1
strokes_ogs.tif
176
     1
290
     0
176
     1
 40
1.0
176
     1
 40
1.0
176
     1
  0
VISUALSTYLE
  5
38
102
{ACAD_REACTORS
330
2A
102
}
330
2A
100
AcDbVisualStyle
  2
Linepattern
 70
    14
177
     3
291
     1
 70
    58
 90
        2
176
     1
 90
        2
176
     1
 90
        0
176
     1
 90
        0
176
     1
 40
-0.6
176
     1
 40
-30.0
176
     1
 62
     7
176
     1
 90
        1
176
     1
 90
        4
176
     1
 62
     7
176
     1
 62
   257
176
     1
 90
        7
176
     1
 90
        7
176
     1
 40
1.0
176
     1
 90
        8
176
     1
 62
     7
176
     1
 40
1.0
176
     1
 90
        1
176
     1
 90
        6
176
     1
 90
        2
176
     1
 62
     7
176
     1
 90
        5
176
     1
 90
        0
176
     1
 90
        0
176
     1
290
     0
176
     1
 90
        1
176
     1
 40
0.0
176
     1
 90
        0
176
     1
290
     0
176
     1
290
     1
176
     1
290
     1
176
     1
290
     0
176
     1
290
     0
176
     1
290
     0
176
     1
290
     0
176
     1
290
     0
176
     1
290
     0
176
     1
 90
       50
176
     1
 40
0.0
176
     1
 40
1.0
176
     1
 90
        0
176
     1
 62
    18
420
        0
176
     1
 90
       50
176
     1
 90
        3
176
     1
 62
     5
420
      255
176
     1
290
     0
176
     1
 90
       50
176
     1
 90
       50
176
     1
 90
       50
176
     1
290
     0
176
     1
 90
       50
176
     1
 62
   256
176
     0
 40
1.0
176
     0
 90
        2
176
     1
  1
strokes_ogs.tif
176
     1
290
     0
176
     1
 40
1.0
176
     1
 40
1.0
176
     1
  0
VISUALSTYLE
  5
1DC6
102
{ACAD_REACTORS
330
2A
102
}
330
2A
100
AcDbVisualStyle
  2
OverhangOff
 70
    21
177
     3
291
     1
 70
    58
 90
        2
176
     0
 90
        2
176
     0
 90
        0
176
     0
 90
        0
176
     0
 40
0.6
176
     0
 40
30.0
176
     0
 62
     7
420
 16777215
176
     0
 90
        1
176
     0
 90
        4
176
     0
 62
     7
176
     0
 62
   257
176
     0
 90
        1
176
     0
 90
        1
176
     0
 40
1.0
176
     0
 90
        9
176
     0
 62
     7
176
     0
 40
1.0
176
     0
 90
        1
176
     0
 90
        6
176
     0
 90
        2
176
     0
 62
     7
176
     0
 90
        5
176
     0
 90
        0
176
     0
 90
        0
176
     0
290
     0
176
     0
 90
        1
176
     0
 40
0.0
176
     0
 90
        0
176
     0
290
     0
176
     1
290
     1
176
     1
290
     1
176
     1
290
     0
176
     1
290
     0
176
     1
290
     0
176
     1
290
     0
176
     1
290
     0
176
     1
290
     0
176
     1
 90
       50
176
     1
 40
0.0
176
     1
 40
1.0
176
     1
 90
        0
176
     1
 62
    18
420
        0
176
     1
 90
       50
176
     1
 90
        3
176
     1
 62
     5
420
      255
176
     1
290
     0
176
     1
 90
       50
176
     1
 90
       50
176
     1
 90
       50
176
     1
290
     0
176
     1
 90
       50
176
     1
 62
   256
176
     0
 40
1.0
176
     0
 90
        2
176
     1
  1
strokes_ogs.tif
176
     1
290
     0
176
     1
 40
1.0
176
     1
 40
1.0
176
     1
  0
VISUALSTYLE
  5
33
102
{ACAD_REACTORS
330
2A
102
}
330
2A
100
AcDbVisualStyle
  2
Realistic
 70
     8
177
     3
291
     0
 70
    58
 90
        2
176
     1
 90
        2
176
     1
 90
        0
176
     1
 90
        0
176
     1
 40
-0.6
176
     1
 40
-30.0
176
     1
 62
     7
176
     1
 90
        1
176
     1
 90
        0
176
     1
 62
     7
176
     1
 62
   257
176
     1
 90
        1
176
     1
 90
        1
176
     1
 40
1.0
176
     1
 90
        8
176
     1
 62
     8
176
     1
 40
1.0
176
     1
 90
        1
176
     1
 90
        6
176
     1
 90
        2
176
     1
 62
     7
176
     1
 90
        5
176
     1
 90
        0
176
     1
 90
        0
176
     1
290
     0
176
     1
 90
       13
176
     1
 40
0.0
176
     1
 90
        0
176
     1
290
     0
176
     1
290
     1
176
     1
290
     1
176
     1
290
     0
176
     1
290
     0
176
     1
290
     0
176
     1
290
     0
176
     1
290
     0
176
     1
290
     0
176
     1
 90
       50
176
     1
 40
0.0
176
     1
 40
1.0
176
     1
 90
        0
176
     1
 62
    18
420
        0
176
     1
 90
       50
176
     1
 90
        3
176
     1
 62
     5
420
      255
176
     1
290
     0
176
     1
 90
       50
176
     1
 90
       50
176
     1
 90
       50
176
     1
290
     0
176
     1
 90
       50
176
     1
 62
   256
176
     0
 40
1.0
176
     0
 90
        2
176
     1
  1
strokes_ogs.tif
176
     1
290
     0
176
     1
 40
1.0
176
     1
 40
1.0
176
     1
  0
VISUALSTYLE
  5
1DCC
102
{ACAD_REACTORS
330
2A
102
}
330
2A
100
AcDbVisualStyle
  2
Shaded
 70
    27
177
     3
291
     0
 70
    58
 90
        2
176
     1
 90
        2
176
     1
 90
        1
176
     1
 90
        2
176
     1
 40
0.6
176
     1
 40
30.0
176
     1
 62
     7
420
 16777215
176
     1
 90
        0
176
     1
 90
        4
176
     1
 62
     7
176
     1
 62
   257
176
     1
 90
        1
176
     1
 90
        1
176
     1
 40
1.0
176
     1
 90
        8
176
     1
 62
   257
176
     1
 40
1.0
176
     1
 90
        1
176
     1
 90
        6
176
     1
 90
        2
176
     1
 62
   251
420
  5131854
176
     1
 90
        3
176
     1
 90
        0
176
     1
 90
        0
176
     1
290
     0
176
     1
 90
        5
176
     1
 40
0.0
176
     1
 90
        0
176
     1
290
     0
176
     1
290
     1
176
     1
290
     1
176
     1
290
     0
176
     1
290
     0
176
     1
290
     0
176
     1
290
     0
176
     1
290
     0
176
     1
290
     0
176
     1
 90
       50
176
     1
 40
0.0
176
     1
 40
1.0
176
     1
 90
        0
176
     1
 62
    18
420
        0
176
     1
 90
       50
176
     1
 90
        3
176
     1
 62
     5
420
      255
176
     1
290
     0
176
     1
 90
       50
176
     1
 90
       50
176
     1
 90
       50
176
     1
290
     0
176
     1
 90
       50
176
     1
 62
   256
176
     0
 40
1.0
176
     0
 90
        2
176
     1
  1
strokes_ogs.tif
176
     1
290
     0
176
     1
 40
1.0
176
     1
 40
1.0
176
     1
  0
VISUALSTYLE
  5
1DCB
102
{ACAD_REACTORS
330
2A
102
}
330
2A
100
AcDbVisualStyle
  2
Shaded with edges
 70
    26
177
     3
291
     0
 70
    58
 90
        2
176
     1
 90
        2
176
     1
 90
        1
176
     1
 90
        2
176
     1
 40
0.6
176
     1
 40
30.0
176
     1
 62
     7
420
 16777215
176
     1
 90
        1
176
     1
 90
       10
176
     1
 62
     7
176
     1
 62
   257
176
     1
 90
        2
176
     1
 90
        1
176
     1
 40
1.0
176
     1
 90
        8
176
     1
 62
   257
176
     1
 40
1.0
176
     1
 90
        1
176
     1
 90
        6
176
     1
 90
        2
176
     1
 62
     7
176
     1
 90
        3
176
     1
 90
        0
176
     1
 90
        0
176
     1
290
     0
176
     1
 90
        5
176
     1
 40
0.0
176
     1
 90
        0
176
     1
290
     0
176
     1
290
     1
176
     1
290
     1
176
     1
290
     0
176
     1
290
     0
176
     1
290
     0
176
     1
290
     0
176
     1
290
     0
176
     1
290
     0
176
     1
 90
       50
176
     1
 40
0.0
176
     1
 40
1.0
176
     1
 90
        0
176
     1
 62
    18
420
        0
176
     1
 90
       50
176
     1
 90
        3
176
     1
 62
     5
420
      255
176
     1
290
     0
176
     1
 90
       50
176
     1
 90
       50
176
     1
 90
       50
176
     1
290
     0
176
     1
 90
       50
176
     1
 62
   256
176
     0
 40
1.0
176
     0
 90
        2
176
     1
  1
strokes_ogs.tif
176
     1
290
     0
176
     1
 40
1.0
176
     1
 40
1.0
176
     1
  0
VISUALSTYLE
  5
1DC8
102
{ACAD_REACTORS
330
2A
102
}
330
2A
100
AcDbVisualStyle
  2
Shades of Gray
 70
    23
177
     3
291
     0
 70
    58
 90
        2
176
     1
 90
        2
176
     1
 90
        3
176
     1
 90
        0
176
     1
 40
0.6
176
     1
 40
30.0
176
     1
 62
     7
420
 16777215
176
     1
 90
        2
176
     1
 90
        2
176
     1
 62
     7
176
     1
 62
     7
176
     1
 90
        1
176
     1
 90
        1
176
     1
 40
40.0
176
     1
 90
        8
176
     1
 62
     7
176
     1
 40
1.0
176
     1
 90
        1
176
     1
 90
        6
176
     1
 90
        2
176
     1
 62
     7
176
     1
 90
        3
176
     1
 90
        0
176
     1
 90
        0
176
     1
290
     0
176
     1
 90
        1
176
     1
 40
0.0
176
     1
 90
        0
176
     1
290
     0
176
     1
290
     1
176
     1
290
     1
176
     1
290
     0
176
     1
290
     0
176
     1
290
     0
176
     1
290
     0
176
     1
290
     0
176
     1
290
     0
176
     1
 90
       50
176
     1
 40
0.0
176
     1
 40
1.0
176
     1
 90
        0
176
     1
 62
    18
420
        0
176
     1
 90
       50
176
     1
 90
        3
176
     1
 62
     5
420
      255
176
     1
290
     0
176
     1
 90
       50
176
     1
 90
       50
176
     1
 90
       50
176
     1
290
     0
176
     1
 90
       50
176
     1
 62
   256
176
     0
 40
1.0
176
     0
 90
        2
176
     1
  1
strokes_ogs.tif
176
     1
290
     0
176
     1
 40
1.0
176
     1
 40
1.0
176
     1
  0
VISUALSTYLE
  5
1DC9
102
{ACAD_REACTORS
330
2A
102
}
330
2A
100
AcDbVisualStyle
  2
Sketchy
 70
    24
177
     3
291
     0
 70
    58
 90
        1
176
     1
 90
        2
176
     1
 90
        2
176
     1
 90
        0
176
     1
 40
0.6
176
     1
 40
30.0
176
     1
 62
     7
420
 16777215
176
     1
 90
        2
176
     1
 90
        2
176
     1
 62
     7
176
     1
 62
     7
176
     1
 90
        1
176
     1
 90
        1
176
     1
 40
40.0
176
     1
 90
       11
176
     1
 62
     7
176
     1
 40
1.0
176
     1
 90
        1
176
     1
 90
        6
176
     1
 90
        2
176
     1
 62
     7
176
     1
 90
        6
176
     1
 90
        0
176
     1
 90
        0
176
     1
290
     0
176
     1
 90
        1
176
     1
 40
0.0
176
     1
 90
        0
176
     1
290
     0
176
     1
290
     1
176
     1
290
     1
176
     1
290
     0
176
     1
290
     0
176
     1
290
     0
176
     1
290
     0
176
     1
290
     0
176
     1
290
     0
176
     1
 90
       50
176
     1
 40
0.0
176
     1
 40
1.0
176
     1
 90
        0
176
     1
 62
    18
420
        0
176
     1
 90
       50
176
     1
 90
        3
176
     1
 62
     5
420
      255
176
     1
290
     0
176
     1
 90
       50
176
     1
 90
       50
176
     1
 90
       50
176
     1
290
     0
176
     1
 90
       50
176
     1
 62
   256
176
     0
 40
1.0
176
     0
 90
        2
176
     1
  1
strokes_ogs.tif
176
     1
290
     0
176
     1
 40
1.0
176
     1
 40
1.0
176
     1
  0
VISUALSTYLE
  5
37
102
{ACAD_REACTORS
330
2A
102
}
330
2A
100
AcDbVisualStyle
  2
Thicken
 70
    13
177
     3
291
     1
 70
    58
 90
        2
176
     1
 90
        2
176
     1
 90
        0
176
     1
 90
        0
176
     1
 40
-0.6
176
     1
 40
-30.0
176
     1
 62
     7
176
     1
 90
        1
176
     1
 90
        4
176
     1
 62
     7
176
     1
 62
   257
176
     1
 90
        1
176
     1
 90
        1
176
     1
 40
1.0
176
     1
 90
       12
176
     1
 62
     7
176
     1
 40
1.0
176
     1
 90
        1
176
     1
 90
        6
176
     1
 90
        2
176
     1
 62
     7
176
     1
 90
        5
176
     1
 90
        0
176
     1
 90
        0
176
     1
290
     0
176
     1
 90
        1
176
     1
 40
0.0
176
     1
 90
        0
176
     1
290
     0
176
     1
290
     1
176
     1
290
     1
176
     1
290
     0
176
     1
290
     0
176
     1
290
     0
176
     1
290
     0
176
     1
290
     0
176
     1
290
     0
176
     1
 90
       50
176
     1
 40
0.0
176
     1
 40
1.0
176
     1
 90
        0
176
     1
 62
    18
420
        0
176
     1
 90
       50
176
     1
 90
        3
176
     1
 62
     5
420
      255
176
     1
290
     0
176
     1
 90
       50
176
     1
 90
       50
176
     1
 90
       50
176
     1
290
     0
176
     1
 90
       50
176
     1
 62
   256
176
     0
 40
1.0
176
     0
 90
        2
176
     1
  1
strokes_ogs.tif
176
     1
290
     0
176
     1
 40
1.0
176
     1
 40
1.0
176
     1
  0
VISUALSTYLE
  5
1DC3
102
{ACAD_REACTORS
330
2A
102
}
330
2A
100
AcDbVisualStyle
  2
Wireframe
 70
     5
177
     3
291
     0
 70
    58
 90
        0
176
     1
 90
        2
176
     1
 90
        0
176
     1
 90
        0
176
     1
 40
0.6
176
     1
 40
30.0
176
     1
 62
     7
420
 16777215
176
     1
 90
        1
176
     1
 90
        4
176
     1
 62
     7
176
     1
 62
   257
176
     1
 90
        1
176
     1
 90
        1
176
     1
 40
1.0
176
     1
 90
        0
176
     1
 62
   257
176
     1
 40
1.0
176
     1
 90
        1
176
     1
 90
        6
176
     1
 90
        2
176
     1
 62
     7
176
     1
 90
        5
176
     1
 90
        0
176
     1
 90
        0
176
     1
290
     0
176
     1
 90
        1
176
     1
 40
0.0
176
     1
 90
        0
176
     1
290
     0
176
     1
290
     1
176
     1
290
     1
176
     1
290
     0
176
     1
290
     0
176
     1
290
     0
176
     1
290
     0
176
     1
290
     0
176
     1
290
     0
176
     1
 90
       50
176
     1
 40
0.0
176
     1
 40
1.0
176
     1
 90
        0
176
     1
 62
    18
420
        0
176
     1
 90
       50
176
     1
 90
        3
176
     1
 62
     5
420
      255
176
     1
290
     0
176
     1
 90
       50
176
     1
 90
       50
176
     1
 90
       50
176
     1
290
     0
176
     1
 90
       50
176
     1
 62
   256
176
     0
 40
1.0
176
     0
 90
        2
176
     1
  1
strokes_ogs.tif
176
     1
290
     0
176
     1
 40
1.0
176
     1
 40
1.0
176
     1
  0
VISUALSTYLE
  5
1DCA
102
{ACAD_REACTORS
330
2A
102
}
330
2A
100
AcDbVisualStyle
  2
X-Ray
 70
    25
177
     3
291
     0
 70
    58
 90
        2
176
     1
 90
        2
176
     1
 90
        1
176
     1
 90
        1
176
     1
 40
0.5
176
     1
 40
30.0
176
     1
 62
     7
420
 16777215
176
     1
 90
        1
176
     1
 90
        0
176
     1
 62
     7
176
     1
 62
   257
176
     1
 90
        1
176
     1
 90
        1
176
     1
 40
1.0
176
     1
 90
        8
176
     1
 62
     7
176
     1
 40
1.0
176
     1
 90
        1
176
     1
 90
        6
176
     1
 90
        2
176
     1
 62
     7
176
     1
 90
        3
176
     1
 90
        0
176
     1
 90
        0
176
     1
290
     0
176
     1
 90
       13
176
     1
 40
0.0
176
     1
 90
        0
176
     1
290
     0
176
     1
290
     1
176
     1
290
     1
176
     1
290
     0
176
     1
290
     0
176
     1
290
     0
176
     1
290
     0
176
     1
290
     0
176
     1
290
     0
176
     1
 90
       50
176
     1
 40
0.0
176
     1
 40
1.0
176
     1
 90
        0
176
     1
 62
    18
420
        0
176
     1
 90
       50
176
     1
 90
        3
176
     1
 62
     5
420
      255
176
     1
290
     0
176
     1
 90
       50
176
     1
 90
       50
176
     1
 90
       50
176
     1
290
     0
176
     1
 90
       50
176
     1
 62
   256
176
     0
 40
1.0
176
     0
 90
        2
176
     1
  1
strokes_ogs.tif
176
     1
290
     0
176
     1
 40
1.0
176
     1
 40
1.0
176
     1
  0
DICTIONARYVAR
  5
1DD3
102
{ACAD_REACTORS
330
1DD2
102
}
330
1DD2
100
DictionaryVariables
280
     0
  1
1:1
  0
DICTIONARYVAR
  5
1DD5
102
{ACAD_REACTORS
330
1DD2
102
}
330
1DD2
100
DictionaryVariables
280
     0
  1
Standard
  0
DICTIONARYVAR
  5
1DD4
102
{ACAD_REACTORS
330
1DD2
102
}
330
1DD2
100
DictionaryVariables
280
     0
  1
Standard
  0
DICTIONARYVAR
  5
1DD6
102
{ACAD_REACTORS
330
1DD2
102
}
330
1DD2
100
DictionaryVariables
280
     0
  1
0
  0
DICTIONARY
  5
273B
330
1DCD
100
AcDbDictionary
280
     1
281
     1
  3
ACAD_ROUNDTRIP_2008_TABLESTYLE_CELLSTYLEMAP
360
273C
  0
CELLSTYLEMAP
  5
273C
102
{ACAD_REACTORS
330
273B
102
}
330
273B
100
AcDbCellStyleMap
 90
        3
300
CELLSTYLE
  1
TABLEFORMAT_BEGIN
 90
        5
170
     1
 91
        0
 92
    32768
 62
   257
 93
        1
300
CONTENTFORMAT
  1
CONTENTFORMAT_BEGIN
 90
        0
 91
        0
 92
      512
 93
        0
300

 40
0.0
140
1.0
 94
        5
 62
     0
340
11
144
0.25
309
CONTENTFORMAT_END
171
     1
301
MARGIN
  1
CELLMARGIN_BEGIN
 40
0.06
 40
0.06
 40
0.06
 40
0.06
 40
0.06
 40
0.06
309
CELLMARGIN_END
 94
        6
 95
        1
302
GRIDFORMAT
  1
GRIDFORMAT_BEGIN
 90
        0
 91
        1
 62
     0
 92
       -2
340
14
 93
        0
 40
0.045
309
GRIDFORMAT_END
 95
        2
302
GRIDFORMAT
  1
GRIDFORMAT_BEGIN
 90
        0
 91
        1
 62
     0
 92
       -2
340
14
 93
        0
 40
0.045
309
GRIDFORMAT_END
 95
        4
302
GRIDFORMAT
  1
GRIDFORMAT_BEGIN
 90
        0
 91
        1
 62
     0
 92
       -2
340
14
 93
        0
 40
0.045
309
GRIDFORMAT_END
 95
        8
302
GRIDFORMAT
  1
GRIDFORMAT_BEGIN
 90
        0
 91
        1
 62
     0
 92
       -2
340
14
 93
        0
 40
0.045
309
GRIDFORMAT_END
 95
       16
302
GRIDFORMAT
  1
GRIDFORMAT_BEGIN
 90
        0
 91
        1
 62
     0
 92
       -2
340
14
 93
        0
 40
0.045
309
GRIDFORMAT_END
 95
       32
302
GRIDFORMAT
  1
GRIDFORMAT_BEGIN
 90
        0
 91
        1
 62
     0
 92
       -2
340
14
 93
        0
 40
0.045
309
GRIDFORMAT_END
309
TABLEFORMAT_END
  1
CELLSTYLE_BEGIN
 90
        1
 91
        1
300
_TITLE
309
CELLSTYLE_END
300
CELLSTYLE
  1
TABLEFORMAT_BEGIN
 90
        5
170
     1
 91
        0
 92
        0
 62
   257
 93
        1
300
CONTENTFORMAT
  1
CONTENTFORMAT_BEGIN
 90
        0
 91
        0
 92
      512
 93
        0
300

 40
0.0
140
1.0
 94
        5
 62
     0
340
11
144
0.18
309
CONTENTFORMAT_END
171
     1
301
MARGIN
  1
CELLMARGIN_BEGIN
 40
0.06
 40
0.06
 40
0.06
 40
0.06
 40
0.06
 40
0.06
309
CELLMARGIN_END
 94
        6
 95
        1
302
GRIDFORMAT
  1
GRIDFORMAT_BEGIN
 90
        0
 91
        1
 62
     0
 92
       -2
340
14
 93
        0
 40
0.045
309
GRIDFORMAT_END
 95
        2
302
GRIDFORMAT
  1
GRIDFORMAT_BEGIN
 90
        0
 91
        1
 62
     0
 92
       -2
340
14
 93
        0
 40
0.045
309
GRIDFORMAT_END
 95
        4
302
GRIDFORMAT
  1
GRIDFORMAT_BEGIN
 90
        0
 91
        1
 62
     0
 92
       -2
340
14
 93
        0
 40
0.045
309
GRIDFORMAT_END
 95
        8
302
GRIDFORMAT
  1
GRIDFORMAT_BEGIN
 90
        0
 91
        1
 62
     0
 92
       -2
340
14
 93
        0
 40
0.045
309
GRIDFORMAT_END
 95
       16
302
GRIDFORMAT
  1
GRIDFORMAT_BEGIN
 90
        0
 91
        1
 62
     0
 92
       -2
340
14
 93
        0
 40
0.045
309
GRIDFORMAT_END
 95
       32
302
GRIDFORMAT
  1
GRIDFORMAT_BEGIN
 90
        0
 91
        1
 62
     0
 92
       -2
340
14
 93
        0
 40
0.045
309
GRIDFORMAT_END
309
TABLEFORMAT_END
  1
CELLSTYLE_BEGIN
 90
        2
 91
        1
300
_HEADER
309
CELLSTYLE_END
300
CELLSTYLE
  1
TABLEFORMAT_BEGIN
 90
        5
170
     1
 91
        0
 92
        0
 62
   257
 93
        1
300
CONTENTFORMAT
  1
CONTENTFORMAT_BEGIN
 90
        0
 91
        0
 92
      512
 93
        0
300

 40
0.0
140
1.0
 94
        2
 62
     0
340
11
144
0.18
309
CONTENTFORMAT_END
171
     1
301
MARGIN
  1
CELLMARGIN_BEGIN
 40
0.06
 40
0.06
 40
0.06
 40
0.06
 40
0.06
 40
0.06
309
CELLMARGIN_END
 94
        6
 95
        1
302
GRIDFORMAT
  1
GRIDFORMAT_BEGIN
 90
        0
 91
        1
 62
     0
 92
       -2
340
14
 93
        0
 40
0.045
309
GRIDFORMAT_END
 95
        2
302
GRIDFORMAT
  1
GRIDFORMAT_BEGIN
 90
        0
 91
        1
 62
     0
 92
       -2
340
14
 93
        0
 40
0.045
309
GRIDFORMAT_END
 95
        4
302
GRIDFORMAT
  1
GRIDFORMAT_BEGIN
 90
        0
 91
        1
 62
     0
 92
       -2
340
14
 93
        0
 40
0.045
309
GRIDFORMAT_END
 95
        8
302
GRIDFORMAT
  1
GRIDFORMAT_BEGIN
 90
        0
 91
        1
 62
     0
 92
       -2
340
14
 93
        0
 40
0.045
309
GRIDFORMAT_END
 95
       16
302
GRIDFORMAT
  1
GRIDFORMAT_BEGIN
 90
        0
 91
        1
 62
     0
 92
       -2
340
14
 93
        0
 40
0.045
309
GRIDFORMAT_END
 95
       32
302
GRIDFORMAT
  1
GRIDFORMAT_BEGIN
 90
        0
 91
        1
 62
     0
 92
       -2
340
14
 93
        0
 40
0.045
309
GRIDFORMAT_END
309
TABLEFORMAT_END
  1
CELLSTYLE_BEGIN
 90
        3
 91
        2
300
_DATA
309
CELLSTYLE_END
  0
ENDSEC
  0
SECTION
  2
THUMBNAILIMAGE
 90
    16364
310
28000000B4000000550000000100080000000000C43B000000000000000000000001000000010000000000000000FF0000FFFF0000FF0000FFFF0000FF000000FF00FF00FFFFFF0080808000C0C0C0000000FF007F7FFF000000CC006666CC00000099004C4C990000007F003F3F7F0000004C0026264C00003FFF007F9FFF
310
000033CC00667FCC00002699004C5F9900001F7F003F4F7F0000134C00262F4C00007FFF007FBFFF000066CC006699CC00004C99004C729900003F7F003F5F7F0000264C0026394C0000BFFF007FDFFF000099CC0066B2CC00007299004C859900005F7F003F6F7F0000394C0026424C0000FFFF007FFFFF0000CCCC0066CC
310
CC00009999004C999900007F7F003F7F7F00004C4C00264C4C0000FFBF007FFFDF0000CC990066CCB200009972004C998500007F5F003F7F6F00004C3900264C420000FF7F007FFFBF0000CC660066CC990000994C004C997200007F3F003F7F5F00004C2600264C390000FF3F007FFF9F0000CC330066CC7F00009926004C
310
995F00007F1F003F7F4F00004C1300264C2F0000FF00007FFF7F0000CC000066CC6600009900004C994C00007F00003F7F3F00004C0000264C26003FFF00009FFF7F0033CC00007FCC6600269900005F994C001F7F00004F7F3F00134C00002F4C26007FFF0000BFFF7F0066CC000099CC66004C99000072994C003F7F0000
310
5F7F3F00264C0000394C2600BFFF0000DFFF7F0099CC0000B2CC66007299000085994C005F7F00006F7F3F00394C0000424C2600FFFF0000FFFF7F00CCCC0000CCCC66009999000099994C007F7F00007F7F3F004C4C00004C4C2600FFBF0000FFDF7F00CC990000CCB266009972000099854C007F5F00007F6F3F004C3900
310
004C422600FF7F0000FFBF7F00CC660000CC996600994C000099724C007F3F00007F5F3F004C2600004C392600FF3F0000FF9F7F00CC330000CC7F660099260000995F4C007F1F00007F4F3F004C1300004C2F2600FF000000FF7F7F00CC000000CC66660099000000994C4C007F0000007F3F3F004C0000004C262600FF00
310
3F00FF7F9F00CC003300CC667F0099002600994C5F007F001F007F3F4F004C0013004C262F00FF007F00FF7FBF00CC006600CC66990099004C00994C72007F003F007F3F5F004C0026004C263900FF00BF00FF7FDF00CC009900CC66B20099007200994C85007F005F007F3F6F004C0039004C264200FF00FF00FF7FFF00CC
310
00CC00CC66CC0099009900994C99007F007F007F3F7F004C004C004C264C00BF00FF00DF7FFF009900CC00B266CC0072009900854C99005F007F006F3F7F0039004C0042264C007F00FF00BF7FFF006600CC009966CC004C009900724C99003F007F005F3F7F0026004C0039264C003F00FF009F7FFF003300CC007F66CC00
310
260099005F4C99001F007F004F3F7F0013004C002F264C00333333005B5B5B0084848400ADADAD00D6D6D600FFFFFF00FAFAFAFAFAFAFAFAFAFAFAFAFAFAFAFAFAFAFAFAFAFAFAFAFAFAFAFAFAFAFAFAFAFAFAFAFAFAFAFAFAFAFAFAFAFAFAFAFAFAFAFAFAFAFAFAFAFAFAFAFAFAFAFAFAFAFAFAFAFAFAFAFAFAFAFAFAFAFA
310
FAFAFAFAFAFAFAFAFAFAFAFAFAFAFAFAFAFAFAFAFAFAFAFAFAFAFAFAFAFAFAFAFAFAFAFAFAFAFAFAFAFAFAFAFAFAFAFAFAFAFAFAFAFAFAFAFAFAFAFAFAFAFAFAFAFAFAFAFAFAFAFAFAFAFAFAFAFAFAFAFAFAFAFAFAFAFAFAFAFAFAFAFAFAFAFAFAFAFAFAFAFAFAFAFAFAFAFAFAFAFAFAFAFAFAFAFAFAFAFAFAFAFAFAFAFAFA
310
FAFAFAFAFAFAFAFAFAFAFAFAFAFAFAFAFAFAFAFAFAFAFAFAFAFAFAFAFAFAFAFAFAFAFAFAFAFAFAFAFAFAFAFAFAFAFAFAFAFAFAFAFAFAFAFAFAFAFAFAFAFAFAFAFAFAFAFAFAFAFAFAFAFAFAFAFAFAFAFAFAFAFAFAFAFAFAFAFAFAFAFAFAFAFAFAFAFAFAFAFAFAFAFAFAFAFAFAFAFAFAFAFAFAFAFAFAFAFAFAFAFAFAFAFAFAFA
310
FAFAFAFAFAFAFAFAFAFAFAFAFAFAFAFAFAFAFAFAFAFAFAFAFAFAFAFAFAFAFAFAFAFAFAFAFAFAFAFAFAFAFAFAFAFAFAFAFAFAFAFAFAFAFAFAFAFAFAFAFAFAFAFAFAFAFAFAFAFAFAFAFAFAFAFAFAFAFAFAFAFAFAFAFAFAFAFAFAFAFAFAFAFAFAFAFAFAFAFAFAFAFAFAFAFAFAFAFAFAFAFAFAFAFAFAFAFAFAFAFAFAFAFAFAFAFA
310
FAFAFAFAFAFAFAFAFAFAFAFAFAFAFAFAFAFAFAFAFAFAFAFAFAFAFAFAFAFAFAFAFAFAFAFAFAFAFAFAFAFAFAFAFAFAFAFAFAFAFAFAFAFAFAFAFAFAFAFAFAFAFAFAFAFAFAFAFAFAFAFAFAFAFAFAFAFAFAFAFAFAFAFAFAFAFAFAFAFAFAFAFAFAFAFAFAFAFAFAFAFAFAFAFAFAFAFAFAFAFAFAFAFAFAFAFAFAFAFAFAFAFAFAFAFAFA
310
FAFAFAFAFAFAFAFAFAFAFAFAFAFAFAFAFAFAFAFAFAFAFAFAFAFAFAFAFAFAFAFAFAFAFAFAFAFAFAFAFAFAFAFAFAFAFAFAFAFAFAFAFAFAFAFAFAFAFAFAFAFAFAFAFAFAFAFAFAFAFAFAFAFAFAFAFAFAFAFAFAFAFAFAFAFAFAFAFAFAFAFAFAFAFAFAFAFAFAFAFAFAFAFAFAFAFAFAFAFAFAFAFAFAFAFAFAFAFAFAFAFAFAFAFAFAFA
310
FAFAFAFAFAFAFAFAFAFAFAFAFAFAFAFAFAFAFAFAFAFAFAFAFAFAFAFAFAFAFAFAFAFAFAFAFAFAFAFAFAFAFAFAFAFAFAFAFAFAFAFAFAFAFAFAFAFAFAFAFAFAFAFAFAFAFAFAFAFAFAFAFAFAFAFAFAFAFAFAFAFAFAFAFAFAFAFAFAFAFAFAFAFAFAFAFAFAFAFAFAFAFAFAFAFAFAFAFAFAFAFAFAFAFAFAFAFAFAFAFAFAFAFAFAFAFA
310
FAFAFAFAFAFAFAFAFAFAFAFAFAFAFAFAFAFAFAFAFAFAFAFAFAFAFAFAFAFAFAFAFAFAFAFAFAFAFAFAFAFAFAFAFAFAFAFAFAFAFAFAFAFAFAFAFAFAFAFAFAFAFAFAFAFAFAFAFAFAFAFAFAFAFAFAFAFAFAFAFAFAFAFAFAFAFAFAFAFAFAFAFAFAFAFAFAFAFAFAFAFAFAFAFAFAFAFAFAFAFAFAFAFAFAFAFAFAFAFAFAFAFAFAFAFAFA
310
FAFAFAFAFAFAFAFAFAFAFAFAFAFAFAFAFAFAFAFAFAFAFAFAFAFAFAFAFAFAFAFAFAFAFAFAFAFAFAFAFAFAFAFAFAFAFAFAFAFAFAFAFAFAFAFAFAFAFAFAFAFAFAFAFAFAFAFAFAFAFAFAFAFAFAFAFAFAFAFAFAFAFAFAFAFAFAFAFAFAFAFAFAFAFAFAFAFAFAFAFAFAFAFAFAFAFAFAFAFAFAFAFAFAFAFAFAFAFAFAFAFAFAFAFAFAFA
310
FAFAFAFAFAFAFAFAFAFAFAFAFAFAFAFAFAFAFAFAFAFAFAFAFAFAFAFAFAFAFAFAFAFAFAFAFAFAFAFAFAFAFAFAFAFAFAFAFAFAFAFAFAFAFAFAFAFAFAFAFAFAFAFAFAFAFAFAFAFAFAFAFAFAFAFAFAFAFAFAFAFAFAFAFAFAFAFAFAFAFAFAFAFAFAFAFAFAFAFAFAFAFAFAFAFAFAFAFAFAFAFAFAFAFAFAFAFAFAFAFAFAFAFAFAFAFA
310
FAFAFAFAFAFAFAFAFAFAFAFAFAFAFAFAFAFAFAFAFAFAFAFAFAFAFAFAFAFAFAFAFAFAFAFAFAFAFAFAFAFAFAFAFAFAFAFAFAFAFAFAFAFAFAFAFAFAFAFAFAFAFAFAFAFAFAFAFAFAFAFAFAFAFAFAFAFAFAFAFAFAFAFAFAFAFAFAFAFAFAFAFAFAFAFAFAFAFAFAFAFAFAFAFAFAFAFAFAFAFAFAFAFAFAFAFAFAFAFAFAFAFAFAFAFAFA
310
FAFAFAFAFAFAFAFAFAFAFAFAFAFAFAFAFAFAFAFAFAFAFAFAFAFAFAFAFAFAFAFAFAFAFAFAFAFAFAFAFAFAFAFAFAFAFAFAFAFAFAFAFAFAFAFAFAFAFAFAFAFAFAFAFAFAFAFAFAFAFAFAFAFAFAFAFAFAFAFAFAFAFAFAFAFAFAFAFAFAFAFAFAFAFAFAFAFAFAFAFAFAFAFAFAFAFAFAFAFAFAFAFAFAFAFAFAFAFAFAFAFAFAFAFAFAFA
310
FAFAFAFAFAFAFAFAFAFAFAFAFAFAFAFAFAFAFAFAFAFAFAFAFAFAFAFAFAFAFAFAFAFAFAFAFAFAFAFAFAFAFAFAFAFAFAFAFAFAFAFAFAFAFAFAFAFAFAFAFAFAFAFAFAFAFAFAFAFAFAFAFAFAFAFAFAFAFAFAFAFAFAFAFAFAFAFAFAFAFAFAFAFAFAFAFAFAFAFAFAFAFAFAFAFAFAFAFAFAFAFAFAFAFAFAFAFAFAFAFAFAFAFAFAFAFA
310
FAFAFAFAFAFAFAFAFAFAFAFAFAFAFAFAFAFAFAFAFAFAFAFAFAFAFAFAFAFAFAFAFAFAFAFAFAFAFAFAFAFAFAFAFAFAFAFAFAFAFAFAFAFAFAFAFAFAFAFAFAFAFAFAFAFAFAFAFAFAFAFAFAFAFAFAFAFAFAFAFAFAFAFAFAFAFAFAFAFAFAFAFAFAFAFAFAFAFAFAFAFAFAFAFAFAFAFAFAFAFAFAFAFAFAFAFAFAFAFAFAFAFAFAFAFAFA
310
FAFAFAFAFAFAFAFAFAFAFAFAFAFAFAFAFAFAFAFAFAFAFAFAFAFAFAFAFAFAFAFAFAFAFAFAFAFAFAFAFAFAFAFAFAFAFAFAFAFAFAFAFAFAFAFAFAFAFAFAFAFAFAFAFAFAFAFAFAFAFAFAFAFAFAFAFAFAFAFAFAFAFAFAFAFAFAFAFAFAFAFAFAFAFAFAFAFAFAFAFAFAFAFAFAFAFAFAFAFAFAFAFAFAFAFAFAFAFAFAFAFAFAFAFAFAFA
310
FAFAFAFAFAFAFAFAFAFAFAFAFAFAFAFAFAFAFAFAFAFAFAFAFAFAFAFAFAFAFAFAFAFAFAFAFAFAFAFAFAFAFAFAFAFAFAFAFAFAFAFAFAFAFAFAFAFAFAFAFAFAFAFAFAFAFAFAFAFAFAFAFAFAFAFAFAFAFAFAFAFAFAFAFAFAFAFAFAFAFAFAFAFAFAFAFAFAFAFAFAFAFAFAFAFAFAFAFAFAFAFAFAFAFAFAFAFAFAFAFAFAFAFAFAFAFA
310
FAFAFAFAFAFAFAFAFAFAFAFAFAFAFAFAFAFAFAFAFAFAFAFAFAFAFAFAFAFAFAFAFAFAFAFAFAFAFAFAFAFAFAFAFAFAFAFAFAFAFAFAFAFAFAFAFAFAFAFAFAFAFAFAFAFAFAFAFAFAFAFAFAFAFAFAFAFAFAFAFAFAFAFAFAFAFAFAFAFAFAFAFAFAFAFAFAFAFAFAFAFAFAFAFAFAFAFAFAFAFAFAFAFAFAFAFAFAFAFAFAFAFAFAFAFAFA
310
FAFAFAFAFAFAFAFAFAFAFAFAFAFAFAFAFAFAFAFAFAFAFAFAFAFAFAFAFAFAFAFAFAFAFAFAFAFAFAFAFAFAFAFAFAFAFAFAFAFAFAFAFAFAFAFAFAFAFAFAFAFAFAFAFAFAFAFAFAFAFAFAFAFAFAFAFAFAFAFAFAFAFAFAFAFAFAFAFAFAFAFAFAFAFAFAFAFAFAFAFAFAFAFAFAFAFAFAFAFAFAFAFAFAFAFAFAFAFAFAFAFAFAFAFAFAFA
310
FAFAFAFAFAFAFAFAFAFAFAFAFAFAFAFAFAFAFAFAFAFAFAFAFAFAFAFAFAFAFAFAFAFAFAFAFAFAFAFAFAFAFAFAFAFAFAFAFAFAFAFAFAFAFAFAFAFAFAFAFAFAFAFAFAFAFAFAFAFAFAFAFAFAFAFAFAFAFAFAFAFAFAFAFAFAFAFAFAFAFAFAFAFAFAFAFAFAFAFAFAFAFAFAFAFAFAFAFAFAFAFAFAFAFAFAFAFAFAFAFAFAFAFAFAFAFA
310
FAFAFAFAFAFAFAFAFAFAFAFAFAFAFAFAFAFAFAFAFAFAFAFAFAFAFAFAFAFAFAFAFAFAFAFAFAFAFAFAFAFAFAFAFAFAFAFAFAFAFAFAFAFAFAFAFAFAFAFAFAFAFAFAFAFAFAFAFAFAFAFAFAFAFAFAFAFAFAFAFAFAFAFAFAFAFAFAFAFAFAFAFAFAFAFAFAFAFAFAFAFAFAFAFAFAFAFAFAFAFAFAFAFAFAFAFAFAFAFAFAFAFAFAFAFAFA
310
FAFAFAFAFAFAFAFAFAFAFAFAFAFAFAFAFAFAFAFAFAFAFAFAFAFAFAFAFAFAFAFAFAFAFAFAFAFAFAFAFAFAFAFAFAFAFAFAFAFAFAFAFAFAFAFAFAFAFAFAFAFAFAFAFAFAFAFAFAFAFAFAFAFAFAFAFAFAFAFAFAFAFAFAFAFAFAFAFAFAFAFAFAFAFAFAFAFAFAFAFAFAFAFAFAFAFAFAFAFAFAFAFAFAFAFAFAFAFAFAFAFAFAFAFAFAFA
310
FAFAFAFAFAFAFAFAFAFAFAFAFAFAFAFAFAFAFAFAFAFAFAFAFAFAFAFAFAFAFAFAFAFAFAFAFAFAFAFAFAFAFAFAFAFAFAFAFAFAFAFAFAFAFAFAFAFAFAFAFAFAFAFAFAFAFAFAFAFAFAFAFAFAFAFAFAFAFAFAFAFAFAFAFAFAFAFAFAFAFAFAFAFAFAFAFAFAFAFAFAFAFAFAFAFAFAFAFAFAFAFAFAFAFAFAFAFAFAFAFAFAFAFAFAFAFA
310
FAFAFAFAFAFAFAFAFAFAFAFAFAFAFAFAFAFAFAFAFAFAFAFAFAFAFAFAFAFAFAFAFAFAFAFAFAFAFAFAFAFAFAFAFAFAFAFAFAFAFAFAFAFAFAFAFAFAFAFAFAFAFAFAFAFAFAFAFAFAFAFAFAFAFAFAFAFAFAFAFAFAFAFAFAFAFAFAFAFAFAFAFAFAFAFAFAFAFAFAFAFAFAFAFAFAFAFAFAFAFAFAFAFAFAFAFAFAFAFAFAFAFAFAFAFAFA
310
FAFAFAFAFAFAFAFAFAFAFAFAFAFAFAFAFAFAFAFAFAFAFAFAFAFAFAFAFAFAFAFAFAFAFAFAFAFAFAFAFAFAFAFAFAFAFAFAFAFAFAFAFAFAFAFAFAFAFAFAFAFAFAFAFAFAFAFAFAFAFAFAFAFAFAFAFAFAFAFAFAFAFAFAFAFAFAFAFAFAFAFAFAFAFAFAFAFAFAFAFAFAFAFAFAFAFAFAFAFAFAFAFAFAFAFAFAFAFAFAFAFAFAFAFAFAFA
310
FAFAFAFAFAFAFAFAFAFAFAFAFAFAFAFAFAFAFAFAFAFAFAFAFAFAFAFAFAFAFAFAFAFAFAFAFAFAFAFAFAFAFAFAFAFAFAFAFAFAFAFAFAFAFAFAFAFAFAFAFAFAFAFAFAFAFAFAFAFAFAFAFAFAFAFAFAFAFAFAFAFAFAFAFAFAFAFAFAFAFAFAFAFAFAFAFAFAFAFAFAFAFAFAFAFAFAFAFAFAFAFAFAFAFAFAFAFAFAFAFAFAFAFAFAFAFA
310
FAFAFAFAFAFAFAFAFAFAFAFAFAFAFAFAFAFAFAFAFAFAFAFAFAFAFAFAFAFAFAFAFAFAFAFAFAFAFAFAFAFAFAFAFAFAFAFAFAFAFAFAFAFAFAFAFAFAFAFAFAFAFAFAFAFAFAFAFAFAFAFAFAFAFAFAFAFAFAFAFAFAFAFAFAFAFAFAFAFAFAFAFAFAFAFAFAFAFAFAFAFAFAFAFAFAFAFAFAFAFAFAFAFAFAFAFAFAFAFAFAFAFAFAFAFAFA
310
FAFAFAFAFAFAFAFAFAFAFAFAFAFAFAFAFAFAFAFAFAFAFAFAFA0707070707070707FAFAFAFAFAFAFAFAFAFAFAFAFAFAFAFAFAFAFAFAFAFAFAFAFAFAFAFAFAFAFAFAFAFAFAFAFAFAFAFAFAFAFAFAFAFAFAFAFAFAFAFAFAFAFAFAFAFAFAFAFAFAFAFAFAFAFAFAFAFAFAFAFAFAFAFAFAFAFAFAFAFAFAFAFAFAFAFAFAFAFAFAFAFA
310
FAFAFAFAFAFAFAFAFAFAFAFAFAFAFAFAFAFAFAFAFAFAFAFAFAFAFAFAFAFAFAFAFAFAFAFAFAFAFAFAFAFAFAFAFAFAFAFAFAFAFAFAFAFAFAFAFAFAFAFAFAFAFAFAFAFAFAFAFAFAFAFAFAFAFAFAFA0707FA07070707070707FAFAFAFAFAFAFAFAFAFAFAFAFAFAFAFAFAFAFAFAFAFAFAFAFAFAFAFAFAFAFAFAFAFAFAFAFAFAFAFA
310
FAFAFAFAFAFAFAFAFAFAFAFAFAFAFAFAFAFAFAFAFAFAFAFAFAFAFAFAFAFAFAFAFAFAFAFAFAFAFAFAFAFAFAFAFAFAFAFAFAFAFAFAFAFAFAFAFAFAFAFAFAFAFAFAFAFAFAFAFAFAFAFAFAFAFAFAFAFAFAFAFAFAFAFAFAFAFAFAFAFAFAFAFAFAFAFAFAFAFAFAFAFAFAFAFAFAFAFAFAFAFAFAFAFAFAFAFAFAFAFAFAFAFAFAFAFAFA
310
FAFAFA07070707070707070707FAFAFAFAFAFAFAFAFAFAFAFAFAFAFAFAFAFAFAFAFAFAFAFAFAFAFAFAFAFAFAFAFAFAFAFAFAFAFAFAFAFAFAFAFAFAFAFAFAFAFAFAFAFAFAFAFAFAFAFAFAFAFAFAFAFAFAFAFAFAFAFAFAFAFAFAFAFAFAFAFAFAFAFAFAFAFAFAFAFAFAFAFAFAFAFAFAFAFAFAFAFAFAFAFAFAFAFAFAFAFAFAFAFA
310
FAFAFAFAFAFAFAFAFAFAFAFAFAFAFAFAFAFAFAFAFAFAFAFAFAFAFAFAFAFAFAFAFAFAFAFAFAFAFAFAFAFAFAFAFAFAFAFAFAFAFAFAFAFAFA07070707FA070707070707FAFAFAFAFAFAFAFAFAFAFAFAFAFAFAFAFAFAFAFAFAFAFAFAFAFAFAFAFAFAFAFAFAFAFAFAFAFAFAFAFAFAFAFAFAFAFAFAFAFAFAFAFAFAFAFAFAFAFAFAFA
310
FAFAFAFAFAFAFAFAFAFAFAFAFAFAFAFAFAFAFAFAFAFAFAFAFAFAFAFAFAFAFAFAFAFAFAFAFAFAFAFAFAFAFAFAFAFAFAFAFAFAFAFAFAFAFAFAFAFAFAFAFAFAFAFAFAFAFAFAFAFAFAFAFAFAFAFAFAFAFAFAFAFAFAFAFAFAFAFAFAFAFAFAFAFAFAFAFAFAFAFAFAFAFAFAFAFAFAFA07070707FA0707FA070707FAFAFAFAFAFAFAFA
310
FAFAFAFAFAFAFAFAFAFAFAFAFAFAFAFAFAFAFAFAFAFAFAFAFAFAFAFAFAFAFAFAFAFAFAFAFAFAFAFAFAFAFAFAFAFAFAFAFAFAFAFAFAFAFAFAFAFAFAFAFAFAFAFAFAFAFAFAFAFAFAFAFAFAFAFAFAFAFAFAFAFAFAFAFAFAFAFAFAFAFAFAFAFAFAFAFAFAFAFAFAFAFAFAFAFAFAFAFAFAFAFAFAFAFAFAFAFAFAFAFAFAFAFAFAFAFA
310
FAFAFAFAFAFAFAFAFAFAFAFAFAFAFAFAFAFAFAFAFAFAFAFAFAFAFAFAFAFAFAFAFAFAFA07070707070707070707FAFAFAFAFAFAFAFAFAFAFAFAFAFAFAFAFAFAFAFAFAFAFAFAFAFAFAFAFAFAFAFAFAFAFAFAFAFAFAFAFAFAFAFAFAFAFAFAFAFAFAFAFAFAFAFAFAFAFAFAFAFAFAFAFAFAFAFAFAFAFAFAFAFAFAFAFAFAFAFAFAFA
310
FAFAFAFAFAFAFAFAFAFAFAFAFAFAFAFAFAFAFAFAFAFAFAFAFAFAFAFAFAFAFAFAFAFAFAFAFAFAFAFAFAFAFAFAFAFAFAFAFAFAFAFAFAFAFAFAFAFAFAFAFAFAFAFAFAFAFAFAFAFAFAFAFAFAFAFAFAFAFAFAFAFAFAFAFAFAFAFAFA0707070707070707FAFAFAFAFAFAFAFAFAFAFAFAFAFAFAFAFAFAFAFAFAFAFAFAFAFAFAFAFAFA
310
FAFAFAFAFAFAFAFAFAFAFAFAFAFAFAFAFAFAFAFAFAFAFAFAFAFAFAFAFAFAFAFAFAFAFAFAFAFAFAFAFAFAFAFAFAFAFAFAFAFAFAFAFAFAFAFAFAFAFAFAFAFAFAFAFAFAFAFAFAFAFAFAFAFAFAFAFAFAFAFAFAFAFAFAFAFAFAFAFAFAFAFAFAFAFAFAFAFAFAFAFAFAFAFAFAFAFAFAFAFAFAFAFAFAFAFAFAFAFAFAFAFAFAFAFAFAFA
310
FAFAFAFAFAFAFAFAFAFAFAFAFAFAFA0707070707070707FAFAFAFAFAFAFAFAFAFAFAFAFAFAFAFAFAFAFAFAFAFAFAFAFAFAFAFAFAFAFAFAFAFAFAFAFAFAFAFAFAFAFAFAFAFAFAFAFAFAFAFAFAFAFAFAFAFAFAFAFAFAFAFAFAFAFAFAFAFAFAFAFAFAFAFAFAFAFAFAFAFAFAFAFAFAFAFAFAFAFAFAFAFAFAFAFAFAFAFAFAFAFAFA
310
FAFAFAFAFAFAFAFAFAFAFAFAFAFAFAFAFAFAFAFAFAFAFAFAFAFAFAFAFAFAFAFAFAFAFAFAFAFAFAFAFAFAFAFAFAFAFAFAFAFAFAFAFAFAFAFAFAFAFAFAFAFAFAFAFAFAFAFAFA070707070707FAFAFAFAFAFAFAFAFAFAFAFAFAFAFAFAFAFAFAFAFAFAFAFAFAFAFAFAFAFAFAFAFAFAFAFAFAFAFAFAFAFAFAFAFAFAFAFAFAFAFAFA
310
FAFAFAFAFAFAFAFAFAFAFAFAFAFAFAFAFAFAFAFAFAFAFAFAFAFAFAFAFAFAFAFAFAFAFAFAFAFAFAFAFAFAFAFAFAFAFAFAFAFAFAFAFAFAFAFAFAFAFAFAFAFAFAFAFAFAFAFAFAFAFAFAFAFAFAFAFAFAFAFAFAFAFAFAFAFAFAFAFAFAFAFAFAFAFAFAFAFAFAFAFAFAFAFAFAFAFAFAFAFAFAFAFAFAFAFAFAFAFAFAFAFA0707070707
310
07FAFAFAFAFAFAFAFAFAFAFAFAFAFAFAFAFAFAFAFAFAFAFAFAFAFAFAFAFAFAFAFAFAFAFAFAFAFAFAFAFAFAFAFAFAFAFAFAFAFAFAFAFAFAFAFAFAFAFAFAFAFAFAFAFAFAFAFAFAFAFAFAFAFAFAFAFAFAFAFAFAFAFAFAFAFAFAFAFAFAFAFAFAFAFAFAFAFAFAFAFAFAFAFAFAFAFAFAFAFAFAFAFAFAFAFAFAFAFAFAFAFAFAFAFAFA
310
FAFAFAFAFAFAFAFAFAFAFAFAFAFAFAFAFAFAFAFAFAFAFAFAFAFAFAFAFAFAFAFAFAFAFAFAFAFAFAFAFAFAFAFAFAFAFAFA070707070707FAFAFAFAFAFAFAFAFAFAFAFAFAFAFAFAFAFAFAFAFAFAFAFAFAFAFAFAFAFAFAFAFAFAFAFAFAFAFAFAFAFAFAFAFAFAFAFAFAFAFAFAFAFAFAFAFAFAFAFAFAFAFAFAFAFAFAFAFAFAFAFAFA
310
FAFAFAFAFAFAFAFAFAFAFAFAFAFAFAFAFAFAFAFAFAFAFAFAFAFAFAFAFAFAFAFAFAFAFAFAFAFAFAFAFAFAFAFAFAFAFAFAFAFAFAFAFAFAFAFAFAFAFAFAFAFAFAFAFAFAFAFAFAFAFAFAFAFAFAFAFAFAFAFAFAFAFAFAFAFAFAFAFAFAFAFAFAFAFAFAFAFAFAFAFA070707070707FAFAFAFAFAFAFAFAFAFAFAFAFAFAFAFAFAFAFAFA
310
FAFAFAFAFAFAFAFAFAFAFAFAFAFAFAFAFAFAFAFAFAFAFAFAFAFAFAFAFAFAFAFAFAFAFAFAFAFAFAFAFAFAFAFAFAFAFAFAFAFAFAFAFAFAFAFAFAFAFAFAFAFAFAFAFAFAFAFAFAFAFAFAFAFAFAFAFAFAFAFAFAFAFAFAFAFAFAFAFAFAFAFAFAFAFAFAFAFAFAFAFAFAFAFAFAFAFAFAFAFAFAFAFAFAFAFAFAFAFAFAFAFAFAFAFAFAFA
310
FAFAFAFAFAFAFAFAFAFAFAFAFAFAFAFAFAFAFAFAFAFAFAFAFAFAFA0707070707FAFAFAFAFAFAFAFAFAFAFAFAFAFA070707070707070707070707070707070707070707070707070707070707FAFAFAFAFAFAFAFAFAFAFAFAFAFAFAFAFAFAFAFAFAFAFAFAFAFAFAFAFAFAFAFAFAFAFAFAFAFAFAFAFAFAFAFAFAFAFAFAFAFAFA
310
FAFAFAFAFAFAFAFAFAFAFAFAFAFAFAFAFAFAFAFAFAFAFAFAFAFAFAFAFAFAFAFAFAFAFAFAFAFAFAFAFAFAFAFAFAFAFAFAFAFAFAFAFAFAFAFAFAFAFAFAFAFAFAFAFAFAFAFAFAFAFAFAFAFAFAFAFAFAFAFAFA07FAFAFAFAFAFAFAFAFAFAFAFAFAFAFAFAFA07070707070707070707070707070707070707070707070707070707
310
0707FAFAFAFAFAFAFAFAFAFAFAFAFAFAFAFAFAFAFAFAFAFAFAFAFAFAFAFAFAFAFAFAFAFAFAFAFAFAFAFAFAFAFAFAFAFAFAFAFAFAFAFAFAFAFAFAFAFAFAFAFAFAFAFAFAFAFAFAFAFAFAFAFAFAFAFAFAFAFAFAFAFAFAFAFAFAFAFAFAFAFAFAFAFAFAFAFAFAFAFAFAFAFAFAFAFAFAFAFAFAFAFAFAFAFAFAFAFAFAFAFAFAFAFAFA
310
FAFAFAFAFAFAFA07FAFAFAFAFAFAFAFAFAFAFAFAFAFAFAFAFA07070707070707070707070707070707070707070707070707FAFAFAFAFAFAFAFAFAFAFAFAFAFAFAFAFAFAFAFAFAFAFAFAFAFAFAFAFAFAFAFAFAFAFAFAFAFAFAFAFAFAFAFAFAFAFAFAFAFAFAFAFAFAFAFAFAFAFAFAFAFAFAFAFAFAFAFAFAFAFAFAFAFAFAFAFA
310
FAFAFAFAFAFAFAFAFAFAFAFAFAFAFAFAFAFAFAFAFAFAFAFAFAFAFAFAFAFAFAFAFAFAFAFAFAFAFAFAFAFAFAFAFAFAFAFAFAFAFAFAFAFAFAFAFAFAFAFAFA0707FAFAFAFAFAFAFAFAFAFAFAFAFAFAFA07070707070707070707070707070707070707070707070707FAFAFAFAFAFAFAFAFAFAFAFAFAFAFAFAFAFAFAFAFAFAFAFA
310
FAFAFAFAFAFAFAFAFAFAFAFAFAFAFAFAFAFAFAFAFAFAFAFAFAFAFAFAFAFAFAFAFAFAFAFAFAFAFAFAFAFAFAFAFAFAFAFAFAFAFAFAFAFAFAFAFAFAFAFAFAFAFAFAFAFAFAFAFAFAFAFAFAFAFAFAFAFAFAFAFAFAFAFAFAFAFAFAFAFAFAFAFAFAFAFAFAFAFAFAFAFAFAFAFAFAFAFAFAFAFAFAFAFA0707FAFAFAFAFAFAFAFAFAFAFA
310
FAFAFAFA0707070707070707070707FAFAFAFAFAFAFAFAFAFAFAFAFAFAFAFAFAFAFAFAFAFAFAFAFAFAFAFAFAFAFAFAFAFAFAFAFAFAFAFAFAFAFAFAFAFAFAFAFAFAFAFAFAFAFAFAFAFAFAFAFAFAFAFAFAFAFAFAFAFAFAFAFAFAFAFAFAFAFAFAFAFAFAFAFAFAFAFAFAFAFAFAFAFAFAFAFAFAFAFAFAFAFAFAFAFAFAFAFAFAFAFA
310
FAFAFAFAFAFAFAFAFAFAFAFAFAFAFAFAFAFAFAFAFAFAFAFAFAFAFAFAFAFAFAFAFAFAFAFAFAFAFAFA0707FAFAFAFAFAFAFAFAFAFAFAFAFAFAFA0707070707070707070707FAFAFAFAFAFAFAFAFAFAFAFAFAFAFAFAFAFAFAFAFAFAFAFAFAFAFAFAFAFAFAFAFAFAFAFAFAFAFAFAFAFAFAFAFAFAFAFAFAFAFAFAFAFAFAFAFAFAFA
310
FAFAFAFAFAFAFAFAFAFAFAFAFAFAFAFAFAFAFAFAFAFAFAFAFAFAFAFAFAFAFAFAFAFAFAFAFAFAFAFAFAFAFAFAFAFAFAFAFAFAFAFAFAFAFAFAFAFAFAFAFAFAFAFAFAFAFAFAFAFAFAFAFAFAFAFAFAFAFAFAFAFAFAFAFAFAFAFAFAFAFAFAFA0707FAFAFAFAFAFAFAFAFAFAFAFAFAFAFAFAFAFAFAFAFAFAFAFAFAFAFAFAFAFAFAFA
310
FAFAFAFAFAFAFAFAFAFAFAFAFAFAFAFAFAFAFAFAFAFAFAFAFAFAFAFAFAFAFAFAFAFAFAFAFAFAFAFAFAFAFAFAFAFAFAFAFAFAFAFAFAFAFAFAFAFAFAFAFAFAFAFAFAFAFAFAFAFAFAFAFAFAFAFAFAFAFAFAFAFAFAFAFAFAFAFAFAFAFAFAFAFAFAFAFAFAFAFAFAFAFAFAFAFAFAFAFAFAFAFAFAFAFAFAFAFAFAFAFAFAFAFAFAFAFA
310
FAFAFAFAFAFAFAFAFAFAFAFAFAFAFAFAFAFAFA0707FAFAFAFAFAFAFAFAFAFAFAFAFAFAFA070707070707070707070707070707070707FAFAFAFAFAFAFAFAFAFAFAFAFAFAFAFAFAFAFAFAFAFAFAFAFAFAFAFAFAFAFAFAFAFAFAFAFAFAFAFAFAFAFAFAFAFAFAFAFAFAFAFAFAFAFAFAFAFAFAFAFAFAFAFAFAFAFAFAFAFAFAFAFA
310
FAFAFAFAFAFAFAFAFAFAFAFAFAFAFAFAFAFAFAFAFAFAFAFAFAFAFAFAFAFAFAFAFAFAFAFAFAFAFAFAFAFAFAFAFAFAFAFAFAFAFAFAFAFAFAFAFAFAFAFAFAFAFAFAFAFAFAFAFAFAFAFA0707FAFAFAFAFAFAFAFAFAFAFAFAFAFAFA070707070707070707070707070707070707FAFAFAFAFAFAFAFAFAFAFAFAFAFAFAFAFAFAFAFA
310
FAFAFAFAFAFAFAFAFAFAFAFAFAFAFAFAFAFAFAFAFAFAFAFAFAFAFAFAFAFAFAFAFAFAFAFAFAFAFAFAFAFAFAFAFAFAFAFAFAFAFAFAFAFAFAFAFAFAFAFAFAFAFAFAFAFAFAFAFAFAFAFAFAFAFAFAFAFAFAFAFAFAFAFAFAFAFAFAFAFAFAFAFAFAFAFAFAFAFAFAFAFAFAFAFAFAFAFAFAFAFAFAFAFAFAFAFAFAFAFAFAFAFAFAFA0707
310
FAFAFAFAFAFAFAFAFAFAFAFAFAFAFA07070707070707070707070707070707FAFAFAFAFAFAFAFAFAFAFAFAFAFAFAFAFAFAFAFAFAFAFAFAFAFAFAFAFAFAFAFAFAFAFAFAFAFAFAFAFAFAFAFAFAFAFAFAFAFAFAFAFAFAFAFAFAFAFAFAFAFAFAFAFAFAFAFAFAFAFAFAFAFAFAFAFAFAFAFAFAFAFAFAFAFAFAFAFAFAFAFAFAFAFAFA
310
FAFAFAFAFAFAFAFAFAFAFAFAFAFAFAFAFAFAFAFAFAFAFAFAFAFAFAFAFAFAFAFAFAFAFAFAFAFAFAFAFAFAFAFAFAFAFAFAFAFAFA0707FAFAFAFAFAFAFAFAFAFAFAFAFAFAFA07070707070707070707070707070707FAFAFAFAFAFAFAFAFAFAFAFAFAFAFAFAFAFAFAFAFAFAFAFAFAFAFAFAFAFAFAFAFAFAFAFAFAFAFAFAFAFAFA
310
FAFAFAFAFAFAFAFAFAFAFAFAFAFAFAFAFAFAFAFAFAFAFAFAFAFAFAFAFAFAFAFAFAFAFAFAFAFAFAFAFAFAFAFAFAFAFAFAFAFAFAFAFAFAFAFAFAFAFAFAFAFAFAFAFAFAFAFAFAFAFAFAFAFAFAFAFAFAFAFAFAFAFAFAFAFAFAFAFAFAFAFAFAFAFAFAFAFAFAFAFAFAFAFA0707FAFAFAFAFAFAFAFAFAFAFAFAFAFAFA070707070707
310
0707070707070707FAFAFAFAFAFAFAFAFAFAFAFAFAFAFAFAFAFAFAFAFAFAFAFAFAFAFAFAFAFAFAFAFAFAFAFAFAFAFAFAFAFAFAFAFAFAFAFAFAFAFAFAFAFAFAFAFAFAFAFAFAFAFAFAFAFAFAFAFAFAFAFAFAFAFAFAFAFAFAFAFAFAFAFAFAFAFAFAFAFAFAFAFAFAFAFAFAFAFAFAFAFAFAFAFAFAFAFAFAFAFAFAFAFAFAFAFAFAFA
310
FAFAFAFAFAFAFAFAFAFAFAFAFAFAFAFAFAFAFAFAFAFAFAFAFAFAFAFAFAFA0707FAFAFAFAFAFAFAFAFAFAFAFAFAFAFA0707070707070707070707070707FAFAFAFAFAFAFAFAFAFAFAFAFAFAFAFAFAFAFAFAFAFAFAFAFAFAFAFAFAFAFAFAFAFAFAFAFAFAFAFAFAFAFAFAFAFAFAFAFAFAFAFAFAFAFAFAFAFAFAFAFAFAFAFAFAFA
310
FAFAFAFAFAFAFAFAFAFAFAFAFAFAFAFAFAFAFAFAFAFAFAFAFAFAFAFAFAFAFAFAFAFAFAFAFAFAFAFAFAFAFAFAFAFAFAFAFAFAFAFAFAFAFAFAFAFAFAFAFAFAFAFAFAFAFAFAFAFAFAFAFAFAFAFAFAFAFAFAFAFAFA0707FAFAFAFAFAFAFAFAFAFAFAFAFAFAFA07070707070707070707070707070707FAFAFAFAFAFAFAFAFAFAFA
310
FAFAFAFAFAFAFAFAFAFAFAFAFAFAFAFAFAFAFAFAFAFAFAFAFAFAFAFAFAFAFAFAFAFAFAFAFAFAFAFAFAFAFAFAFAFAFAFAFAFAFAFAFAFAFAFAFAFAFAFAFAFAFAFAFAFAFAFAFAFAFAFAFAFAFAFAFAFAFAFAFAFAFAFAFAFAFAFAFAFAFAFAFAFAFAFAFAFAFAFAFAFAFAFAFAFAFAFAFAFAFAFAFAFAFAFAFAFAFAFAFAFAFAFAFAFAFA
310
FAFAFAFAFAFAFAFAFA0707FAFAFAFAFAFAFAFAFAFAFAFAFAFAFA07070707070707070707070707070707FAFAFAFAFAFAFAFAFAFAFAFAFAFAFAFAFAFAFAFAFAFAFAFAFAFAFAFAFAFAFAFAFAFAFAFAFAFAFAFAFAFAFAFAFAFAFAFAFAFAFAFAFAFAFAFAFAFAFAFAFAFAFAFAFAFAFAFAFAFAFAFAFAFAFAFAFAFAFAFAFAFAFAFAFA
310
FAFAFAFAFAFAFAFAFAFAFAFAFAFAFAFAFAFAFAFAFAFAFAFAFAFAFAFAFAFAFAFAFAFAFAFAFAFAFAFAFAFAFAFAFAFAFAFAFAFAFAFAFAFAFAFAFAFAFAFAFAFA0707FAFAFAFAFAFAFAFAFAFAFAFAFAFAFAFAFAFAFAFAFAFAFAFAFAFAFAFAFAFAFAFAFAFAFAFAFAFAFAFAFAFAFAFAFAFAFAFAFAFAFAFAFAFAFAFAFAFAFAFAFAFAFA
310
FAFAFAFAFAFAFAFAFAFAFAFAFAFAFAFAFAFAFAFAFAFAFAFAFAFAFAFAFAFAFAFAFAFAFAFAFAFAFAFAFAFAFAFAFAFAFAFAFAFAFAFAFAFAFAFAFAFAFAFAFAFAFAFAFAFAFAFAFAFAFAFAFAFAFAFAFAFAFAFAFAFAFAFAFAFAFAFAFAFAFAFAFAFAFAFAFAFAFAFAFAFAFAFAFAFAFAFAFAFAFAFAFAFAFA0707FAFAFAFAFAFAFAFAFAFA
310
FAFAFAFAFA0707070707070707070707070707070707070707070707070707070707070707FAFAFAFAFAFAFAFAFAFAFAFAFAFAFAFAFAFAFAFAFAFAFAFAFAFAFAFAFAFAFAFAFAFAFAFAFAFAFAFAFAFAFAFAFAFAFAFAFAFAFAFAFAFAFAFAFAFAFAFAFAFAFAFAFAFAFAFAFAFAFAFAFAFAFAFAFAFAFAFAFAFAFAFAFAFAFAFAFAFA
310
FAFAFAFAFAFAFAFAFAFAFAFAFAFAFAFAFAFAFAFAFAFAFAFAFAFAFAFAFAFAFAFAFAFAFAFAFAFAFAFAFA0707FAFAFAFAFAFAFAFAFAFAFAFAFAFAFA0707070707070707070707070707070707070707070707070707070707070707FAFAFAFAFAFAFAFAFAFAFAFAFAFAFAFAFAFAFAFAFAFAFAFAFAFAFAFAFAFAFAFAFAFAFAFAFA
310
FAFAFAFAFAFAFAFAFAFAFAFAFAFAFAFAFAFAFAFAFAFAFAFAFAFAFAFAFAFAFAFAFAFAFAFAFAFAFAFAFAFAFAFAFAFAFAFAFAFAFAFAFAFAFAFAFAFAFAFAFAFAFAFAFAFAFAFAFAFAFAFAFAFAFAFAFAFAFAFAFAFAFAFAFAFAFAFAFAFAFAFAFAFA0707FAFAFAFAFAFAFAFAFAFAFAFAFAFAFA070707070707070707070707FAFAFAFA
310
FAFAFAFAFAFAFAFAFAFAFAFAFAFAFAFAFAFAFAFAFAFAFAFAFAFAFAFAFAFAFAFAFAFAFAFAFAFAFAFAFAFAFAFAFAFAFAFAFAFAFAFAFAFAFAFAFAFAFAFAFAFAFAFAFAFAFAFAFAFAFAFAFAFAFAFAFAFAFAFAFAFAFAFAFAFAFAFAFAFAFAFAFAFAFAFAFAFAFAFAFAFAFAFAFAFAFAFAFAFAFAFAFAFAFAFAFAFAFAFAFAFAFAFAFAFAFA
310
FAFAFAFAFAFAFAFAFAFAFAFAFAFAFAFAFAFAFAFA0707FAFAFAFAFAFAFAFAFAFAFAFAFAFAFA070707070707070707070707FAFAFAFAFAFAFAFAFAFAFAFAFAFAFAFAFAFAFAFAFAFAFAFAFAFAFAFAFAFAFAFAFAFAFAFAFAFAFAFAFAFAFAFAFAFAFAFAFAFAFAFAFAFAFAFAFAFAFAFAFAFAFAFAFAFAFAFAFAFAFAFAFAFAFAFAFAFA
310
FAFAFAFAFAFAFAFAFAFAFAFAFAFAFAFAFAFAFAFAFAFAFAFAFAFAFAFAFAFAFAFAFAFAFAFAFAFAFAFAFAFAFAFAFAFAFAFAFAFAFAFAFAFAFAFAFAFAFAFAFAFAFAFAFAFAFAFAFAFAFAFA07070707FAFAFAFAFAFAFAFAFAFAFAFAFAFAFAFAFAFAFAFAFAFAFAFAFAFAFAFAFAFAFAFAFAFAFAFAFAFAFAFAFAFAFAFAFAFAFAFAFAFAFA
310
FAFAFAFAFAFAFAFAFAFAFAFAFAFAFAFAFAFAFAFAFAFAFAFAFAFAFAFAFAFAFAFAFAFAFAFAFAFAFAFAFAFAFAFAFAFAFAFAFAFAFAFAFAFAFAFAFAFAFAFAFAFAFAFAFAFAFAFAFAFAFAFAFAFAFAFAFAFAFAFAFAFAFAFAFAFAFAFAFAFAFAFAFAFAFAFAFAFAFAFAFAFAFAFAFAFAFAFAFAFAFAFAFAFAFAFAFAFAFAFAFAFAFAFAFB0707
310
0707FBFAFAFAFAFAFAFAFAFAFAFAFAFAFAFAFAFAFAFAFAFAFAFAFAFAFAFAFAFAFAFAFAFAFAFAFAFAFAFAFAFAFAFAFAFAFAFAFAFAFAFAFAFAFAFAFAFAFAFAFAFAFAFAFAFAFAFAFAFAFAFAFAFAFAFAFAFAFAFAFAFAFAFAFAFAFAFAFAFAFAFAFAFAFAFAFAFAFAFAFAFAFAFAFAFAFAFAFAFAFAFAFAFAFAFAFAFAFAFAFAFAFAFAFA
310
FAFAFAFAFAFAFAFAFAFAFAFAFAFAFAFAFAFAFAFAFAFAFAFAFAFAFAFAFAFAFAFAFAFAFAFAFAFAFAFAFAFAFAFAFAFAFAFAFAFA08FDFAFAFD08FAFAFAFAFAFAFAFAFAFAFAFAFAFAFAFAFAFAFAFAFAFAFAFAFAFAFAFAFAFAFAFAFAFAFAFAFAFAFAFAFAFAFAFAFAFAFAFAFAFAFAFAFAFAFAFAFAFAFAFAFAFAFAFAFAFAFAFAFAFAFA
310
FAFAFAFAFAFAFAFAFAFAFAFAFAFAFAFAFAFAFAFAFAFAFAFAFAFAFAFAFAFAFAFAFAFAFAFAFAFAFAFAFAFAFAFAFAFAFAFAFAFAFAFAFAFAFAFAFAFAFAFAFAFAFAFAFAFAFAFAFAFAFAFAFAFAFAFAFAFAFAFAFAFAFAFAFAFAFAFAFAFAFAFAFAFAFAFAFAFAFAFAFAFAFAFD08FAFA08FDFAFAFAFAFAFAFAFAFAFAFAFAFAFAFAFAFAFA
310
FAFAFAFAFAFAFAFAFAFAFAFAFAFAFAFAFAFAFAFAFAFAFAFAFAFAFAFAFAFAFAFAFAFAFAFAFAFAFAFAFAFAFAFAFAFAFAFAFAFAFAFAFAFAFAFAFAFAFAFAFAFAFAFAFAFAFAFAFAFAFAFAFAFAFAFAFAFAFAFAFAFAFAFAFAFAFAFAFAFAFAFAFAFAFAFAFAFAFAFAFAFAFAFAFAFAFAFAFAFAFAFAFAFAFAFAFAFAFAFAFAFAFAFAFAFAFA
310
FAFAFAFAFAFAFAFAFAFAFAFAFAFAFAFAFAFAFAFAFAFAFAFAFAFAFAFAFAFEFBFAFAFBFEFAFAFAFAFAFAFAFAFAFAFAFAFAFAFAFAFAFAFAFAFAFAFAFAFAFAFAFAFAFAFAFAFAFAFAFAFAFAFAFAFAFAFAFAFAFAFAFAFAFAFAFAFAFAFAFAFAFAFAFAFAFAFAFAFAFAFAFAFAFAFAFAFAFAFAFAFAFAFAFAFAFAFAFAFAFAFAFAFAFAFAFA
310
FAFAFAFAFAFAFAFAFAFAFAFAFAFAFAFAFAFAFAFAFAFAFAFAFAFAFAFAFAFAFAFAFAFAFAFAFAFAFAFAFAFAFAFAFAFAFAFAFAFAFAFAFAFAFAFAFAFAFAFAFAFAFAFAFAFAFAFAFAFAFAFAFAFAFAFAFAFAFAFAFAFA070707070707FAFAFAFAFAFAFAFAFAFAFAFAFAFAFAFAFAFAFAFAFAFAFAFAFAFAFAFAFAFAFAFAFAFAFAFAFAFAFA
310
FAFAFAFAFAFAFAFAFAFAFAFAFAFAFAFAFAFAFAFAFAFAFAFAFAFAFAFAFAFAFAFAFAFAFAFAFAFAFAFAFAFAFAFAFAFAFAFAFAFAFAFAFAFAFAFAFAFAFAFAFAFAFAFAFAFAFAFAFAFAFAFAFAFAFAFAFAFAFAFAFAFAFAFAFAFAFAFAFAFAFAFAFAFAFAFAFAFAFAFAFAFAFAFAFAFAFAFAFAFAFAFAFAFAFAFAFAFAFAFAFAFAFAFAFAFAFA
310
FAFAFAFAFAFAFAFAFAFAFAFAFAFAFAFAFAFAFAFAFAFAFAFAFAFAFAFAFAFAFAFAFAFAFAFAFAFAFAFAFAFAFAFAFAFAFAFAFAFAFAFAFAFAFAFAFAFAFAFAFAFAFAFAFAFAFAFAFAFAFAFAFAFAFAFAFAFAFAFAFAFAFAFAFAFAFAFAFAFAFAFAFAFAFAFAFAFAFAFAFAFAFAFAFAFAFAFAFAFAFAFAFAFAFAFAFAFAFAFAFAFAFAFAFAFAFA
310
FAFAFAFAFAFAFAFAFAFAFAFAFAFAFAFAFAFAFAFAFAFAFAFAFAFAFAFAFAFAFAFAFAFAFAFAFAFAFAFAFAFAFAFAFAFAFAFAFAFAFAFAFAFAFAFAFAFAFAFAFAFAFAFAFAFAFAFAFAFAFAFAFAFAFAFAFAFAFAFAFAFAFAFAFAFAFAFAFAFAFAFAFAFAFAFAFAFAFAFAFAFAFAFAFAFAFAFAFAFAFAFAFAFAFAFAFAFAFAFAFAFAFAFAFAFAFA
310
FAFAFAFAFAFAFAFAFAFAFAFAFAFAFAFAFAFAFAFAFAFAFAFAFAFAFAFAFAFAFAFAFAFAFAFAFAFAFAFAFAFAFAFAFAFAFAFAFAFAFAFAFAFAFAFAFAFAFAFAFAFAFAFAFAFAFAFAFAFAFAFAFAFAFAFAFAFAFAFAFAFAFAFAFAFAFAFAFAFAFAFAFAFAFAFAFAFAFAFAFAFAFAFAFAFAFAFAFAFAFAFAFAFAFAFAFAFAFAFAFAFAFAFAFAFAFA
310
FAFAFAFAFAFAFAFAFAFAFAFAFAFAFAFAFAFAFAFAFAFAFAFAFAFAFAFAFAFAFAFAFAFAFAFAFAFAFAFAFAFAFAFAFAFAFAFAFAFAFAFAFAFAFAFAFAFAFAFAFAFAFAFAFAFAFAFAFAFAFAFAFAFAFAFAFAFAFAFAFAFAFAFAFAFAFAFAFAFAFAFAFAFAFAFAFAFAFAFAFAFAFAFAFAFAFAFAFAFAFAFAFAFAFAFAFAFAFAFAFAFAFAFAFAFAFA
310
FAFAFAFAFAFAFAFAFAFAFAFAFAFAFAFAFAFAFAFAFAFAFAFAFAFAFAFAFAFAFAFAFAFAFAFAFAFAFAFAFAFAFAFAFAFAFAFAFAFAFAFAFAFAFAFAFAFAFAFAFAFAFAFAFAFAFAFAFAFAFAFAFAFAFAFAFAFAFAFAFAFAFAFAFAFAFAFAFAFAFAFAFAFAFAFAFAFAFAFAFAFAFAFAFAFAFAFAFAFAFAFAFAFAFAFAFAFAFAFAFAFAFAFAFAFAFA
310
FAFAFAFAFAFAFAFAFAFAFAFAFAFAFAFAFAFAFAFAFAFAFAFAFAFAFAFAFAFAFAFAFAFAFAFAFAFAFAFAFAFAFAFAFAFAFAFAFAFAFAFAFAFAFAFAFAFAFAFAFAFAFAFAFAFAFAFAFAFAFAFAFAFAFAFAFAFAFAFAFAFAFAFAFAFAFAFAFAFAFAFAFAFAFAFAFAFAFAFAFAFAFAFAFAFAFAFAFAFAFAFAFAFAFAFAFAFAFAFAFAFAFAFAFAFAFA
310
FAFAFAFAFAFAFAFAFAFAFAFAFAFAFAFAFAFAFAFAFAFAFAFAFAFAFAFAFAFAFAFAFAFAFAFAFAFAFAFAFAFAFAFAFAFAFAFAFAFAFAFAFAFAFAFAFAFAFAFAFAFAFAFAFAFAFAFAFAFAFAFAFAFAFAFAFAFAFAFAFAFAFAFAFAFAFAFAFAFAFAFAFAFAFAFAFAFAFAFAFAFAFAFAFAFAFAFAFAFAFAFAFAFAFAFAFAFAFAFAFAFAFAFAFAFAFA
310
FAFAFAFAFAFAFAFAFAFAFAFAFAFAFAFAFAFAFAFAFAFAFAFAFAFAFAFAFAFAFAFAFAFAFAFAFAFAFAFAFAFAFAFAFAFAFAFAFAFAFAFAFAFAFAFAFAFAFAFAFAFAFAFAFAFAFAFAFAFAFAFAFAFAFAFAFAFAFAFAFAFAFAFAFAFAFAFAFAFAFAFAFAFAFAFAFAFAFAFAFAFAFAFAFAFAFAFAFAFAFAFAFAFAFAFAFAFAFAFAFAFAFAFAFAFAFA
310
FAFAFAFAFAFAFAFAFAFAFAFAFAFAFAFAFAFAFAFAFAFAFAFAFAFAFAFAFAFAFAFAFAFAFAFAFAFAFAFAFAFAFAFAFAFAFAFAFAFAFAFAFAFAFAFAFAFAFAFAFAFAFAFAFAFAFAFAFAFAFAFAFAFAFAFAFAFAFAFAFAFAFAFAFAFAFAFAFAFAFAFAFAFAFAFAFAFAFAFAFAFAFAFAFAFAFAFAFAFAFAFAFAFAFAFAFAFAFAFAFAFAFAFAFAFAFA
310
FAFAFAFAFAFAFAFAFAFAFAFAFAFAFAFAFAFAFAFAFAFAFAFAFAFAFAFAFAFAFAFAFAFAFAFAFAFAFAFAFAFAFAFAFAFAFAFAFAFAFAFAFAFAFAFAFAFAFAFAFAFAFAFAFAFAFAFAFAFAFAFAFAFAFAFAFAFAFAFAFAFAFAFAFAFAFAFAFAFAFAFAFAFAFAFAFAFAFAFAFAFAFAFAFAFAFAFAFAFAFAFAFAFAFAFAFAFAFAFAFAFAFAFAFAFAFA
310
FAFAFAFAFAFAFAFAFAFAFAFAFAFAFAFAFAFAFAFAFAFAFAFAFAFAFAFAFAFAFAFAFAFAFAFAFAFAFAFAFAFAFAFAFAFAFAFAFAFAFAFAFAFAFAFAFAFAFAFAFAFAFAFAFAFAFAFAFAFAFAFAFAFAFAFAFAFAFAFAFAFAFAFAFAFAFAFAFAFAFAFAFAFAFAFAFAFAFAFAFAFAFAFAFAFAFAFAFAFAFAFAFAFAFAFAFAFAFAFAFAFAFAFAFAFAFA
310
FAFAFAFAFAFAFAFAFAFAFAFAFAFAFAFAFAFAFAFAFAFAFAFAFAFAFAFAFAFAFAFAFAFAFAFAFAFAFAFAFAFAFAFAFAFAFAFAFAFAFAFAFAFAFAFAFAFAFAFAFAFAFAFAFAFAFAFAFAFAFAFAFAFAFAFAFAFAFAFAFAFAFAFAFAFAFAFAFAFAFAFAFAFAFAFAFAFAFAFAFAFAFAFAFAFAFAFAFAFAFAFAFAFAFAFAFAFAFAFAFAFAFAFAFAFAFA
310
FAFAFAFAFAFAFAFAFAFAFAFAFAFAFAFAFAFAFAFAFAFAFAFAFAFAFAFAFAFAFAFAFAFAFAFAFAFAFAFAFAFAFAFAFAFAFAFAFAFAFAFAFAFAFAFAFAFAFAFAFAFAFAFAFAFAFAFAFAFAFAFAFAFAFAFAFAFAFAFAFAFAFAFAFAFAFAFAFAFAFAFAFAFAFAFAFAFAFAFAFAFAFAFAFAFAFAFAFAFAFAFAFAFAFAFAFAFAFAFAFAFAFAFAFAFAFA
310
FAFAFAFAFAFAFAFAFAFAFAFAFAFAFAFAFAFAFAFAFAFAFAFAFAFAFAFAFAFAFAFAFAFAFAFAFAFAFAFAFAFAFAFAFAFAFAFAFAFAFAFAFAFAFAFAFAFAFAFAFAFAFAFAFAFAFAFAFAFAFAFAFAFAFAFAFAFAFAFAFAFAFAFAFAFAFAFAFAFAFAFAFAFAFAFAFAFAFAFAFAFAFAFAFAFAFAFAFAFAFAFAFAFAFAFAFAFAFAFAFAFAFAFAFAFAFA
310
FAFAFAFAFAFAFAFAFAFAFAFAFAFAFAFAFAFAFAFAFAFAFAFAFAFAFAFAFAFAFAFAFAFAFAFAFAFAFAFAFAFAFAFAFAFAFAFAFAFAFAFAFAFAFAFAFAFAFAFAFAFAFAFAFAFAFAFAFAFAFAFAFAFAFAFAFAFAFAFAFAFAFAFAFAFAFAFAFAFAFAFAFAFAFAFAFAFAFAFAFAFAFAFAFAFAFAFAFAFAFAFAFAFAFAFAFAFAFAFAFAFAFAFAFAFAFA
310
FAFAFAFAFAFAFAFAFAFAFAFAFAFAFAFAFAFAFAFAFAFAFAFAFAFAFAFAFAFAFAFAFAFAFAFAFAFAFAFAFAFAFAFAFAFAFAFAFAFAFAFAFAFAFAFAFAFAFAFAFAFAFAFAFAFAFAFAFAFAFAFAFAFAFAFAFAFAFAFAFAFAFAFAFAFAFAFAFAFAFAFAFAFAFAFAFAFAFAFAFAFAFAFAFAFAFAFAFAFAFAFAFAFAFAFAFAFAFAFAFAFAFAFAFAFAFA
310
FAFAFAFAFAFAFAFAFAFAFAFAFAFAFAFAFAFAFAFAFAFAFAFAFAFAFAFAFAFAFAFAFAFAFAFAFAFAFAFAFAFAFAFAFAFAFAFAFAFAFAFAFAFAFAFAFAFAFAFAFAFAFAFAFAFAFAFAFAFAFAFAFAFAFAFAFAFAFAFAFAFAFAFAFAFAFAFAFAFAFAFAFAFAFAFAFAFAFAFAFAFAFAFAFAFAFAFAFAFAFAFAFAFAFAFAFAFAFAFAFAFAFAFAFAFAFA
310
FAFAFAFAFAFAFAFAFAFAFAFAFAFAFAFAFAFAFAFAFAFAFAFAFAFAFAFAFAFAFAFAFAFAFAFAFAFAFAFAFAFAFAFAFAFAFAFAFAFAFAFAFAFAFAFAFAFAFAFAFAFAFAFAFAFAFAFAFAFAFAFAFAFAFAFAFAFAFAFAFAFAFAFAFAFAFAFAFAFAFAFAFAFAFAFAFAFAFAFAFAFAFAFAFAFAFAFAFAFAFAFAFAFAFAFAFAFAFAFAFAFAFAFAFAFAFA
310
FAFAFAFAFAFAFAFAFAFAFAFAFAFAFAFAFAFAFAFAFAFAFAFAFAFAFAFAFAFAFAFAFAFAFAFAFAFAFAFAFAFAFAFAFAFAFAFAFAFAFAFAFAFAFAFAFAFAFAFAFAFAFAFAFAFAFAFAFAFAFAFAFAFAFAFAFAFAFAFAFAFAFAFAFAFAFAFAFAFAFAFAFAFAFAFAFAFAFAFAFAFAFAFAFAFAFAFAFAFAFAFAFAFAFAFAFAFAFAFAFAFAFAFAFAFAFA
310
FAFAFAFAFAFAFAFAFAFAFAFAFAFAFAFAFAFAFAFAFAFAFAFAFAFAFAFAFAFAFAFAFAFAFAFAFAFAFAFAFAFAFAFAFAFAFAFAFAFAFAFAFAFAFAFAFAFAFAFAFAFAFAFAFAFAFAFAFAFAFAFAFAFAFAFAFAFAFAFAFAFAFAFAFAFAFAFAFAFAFAFAFAFAFAFAFAFAFAFAFAFAFAFAFAFAFAFAFAFAFAFAFAFAFAFAFAFAFAFAFAFAFAFAFAFAFA
310
FAFAFAFAFAFAFAFAFAFAFAFAFAFAFAFAFAFAFAFAFAFAFAFAFAFAFAFAFAFAFAFAFAFAFAFAFAFAFAFAFAFAFAFAFAFAFAFAFAFAFAFAFAFAFAFAFAFAFAFAFAFAFAFAFAFAFAFAFAFAFAFAFAFAFAFAFAFAFAFAFAFAFAFAFAFAFAFAFAFAFAFAFAFAFAFAFAFAFAFAFAFAFAFAFAFAFAFAFAFAFAFAFAFAFAFAFAFAFAFAFAFAFAFAFAFAFA
310
FAFAFAFAFAFAFAFAFAFAFAFAFAFAFAFAFAFAFAFAFAFAFAFAFAFAFAFAFAFAFAFAFAFAFAFAFAFAFAFAFAFAFAFAFAFAFAFAFAFAFAFAFAFAFAFAFAFAFAFAFAFAFAFAFAFAFAFAFAFAFAFAFAFAFAFAFAFAFAFAFAFAFAFAFAFAFAFAFAFAFAFAFAFAFAFAFAFAFAFAFAFAFAFAFAFAFAFAFAFAFAFAFAFAFAFAFAFAFAFAFAFAFAFAFAFAFA
310
FAFAFAFAFAFAFAFAFAFAFAFAFAFAFAFAFAFAFAFAFAFAFAFAFAFAFAFAFAFAFAFAFAFAFAFAFAFAFAFAFAFAFAFAFAFAFAFAFAFAFAFAFAFAFAFAFAFAFAFAFAFAFAFAFAFAFAFAFAFAFAFAFAFAFAFAFAFAFAFAFAFAFAFAFAFAFAFAFAFAFAFAFAFAFAFAFAFAFAFAFAFAFAFAFAFAFAFAFAFAFAFAFAFAFAFAFAFAFAFAFAFAFAFAFAFAFA
310
FAFAFAFAFAFAFAFAFAFAFAFAFAFAFAFAFAFAFAFAFAFAFAFAFAFAFAFAFAFAFAFAFAFAFAFAFAFAFAFAFAFAFAFAFAFAFAFAFAFAFAFAFAFAFAFAFAFAFAFAFAFAFAFAFAFAFAFAFAFAFAFAFAFAFAFAFAFAFAFAFAFAFAFAFAFAFAFAFAFAFAFAFAFAFAFAFAFAFAFAFAFAFAFAFAFAFAFAFAFAFAFAFAFAFAFAFAFAFAFAFAFAFAFAFAFAFA
310
FAFAFAFAFAFAFAFAFAFAFAFAFAFAFAFAFAFAFAFAFAFAFAFAFAFAFAFAFAFAFAFAFAFAFAFAFAFAFAFAFAFAFAFAFAFAFAFAFAFAFAFAFAFAFAFAFAFAFAFAFAFAFAFAFAFAFAFAFAFAFAFAFAFAFAFAFAFAFAFAFAFAFAFAFAFAFAFAFAFAFAFAFAFAFAFAFAFAFAFAFAFAFAFAFAFAFAFAFAFAFAFAFAFAFAFAFAFAFAFAFAFAFAFAFAFAFA
310
FAFAFAFAFAFAFAFAFAFAFAFAFAFAFAFAFAFAFAFAFAFAFAFAFAFAFAFAFAFAFAFAFAFAFAFAFAFAFAFAFAFAFAFAFAFAFAFAFAFAFAFAFAFAFAFAFAFAFAFAFAFAFAFAFAFAFAFAFAFAFAFAFAFAFAFAFAFAFAFAFAFAFAFAFAFAFAFAFAFAFAFAFAFAFAFAFAFAFAFAFAFAFAFAFAFAFAFAFAFAFAFAFAFAFAFAFAFAFAFAFAFAFAFAFAFAFA
310
FAFAFAFAFAFAFAFAFAFAFAFAFAFAFAFAFAFAFAFAFAFAFAFAFAFAFAFAFAFAFAFAFAFAFAFAFAFAFAFAFAFAFAFAFAFAFAFAFAFAFAFAFAFAFAFAFAFAFAFAFAFAFAFAFAFAFAFAFAFAFAFAFAFAFAFAFAFAFAFAFAFAFAFAFAFAFAFAFAFAFAFAFAFAFAFAFAFAFAFAFAFAFAFAFAFAFAFAFAFAFAFAFAFAFAFAFAFAFAFAFAFAFAFAFAFAFA
310
FAFAFAFAFAFAFAFAFAFAFAFAFAFAFAFAFAFAFAFAFAFAFAFAFAFAFAFAFAFAFAFAFAFAFAFAFAFAFAFAFAFAFAFAFAFAFAFAFAFAFAFAFAFAFAFAFAFAFAFAFAFAFAFAFAFAFAFAFAFAFAFAFAFAFAFAFAFAFAFAFAFAFAFAFAFAFAFAFAFAFAFAFAFAFAFAFAFAFAFAFAFAFAFAFAFAFAFAFAFAFAFAFAFAFAFAFAFAFAFAFAFAFAFAFAFAFA
310
FAFAFAFAFAFAFAFAFAFAFAFAFAFAFAFAFAFAFAFAFAFAFAFAFAFAFAFAFAFAFAFAFAFAFAFAFAFAFAFAFAFAFAFAFAFAFAFAFAFAFAFAFAFAFAFAFAFAFAFAFAFAFAFAFAFAFAFAFAFAFAFAFAFAFAFAFAFAFAFAFAFAFAFAFAFAFAFAFAFAFAFAFAFAFAFAFAFAFAFAFAFAFAFAFAFAFAFAFAFAFAFAFAFAFAFAFAFAFAFAFAFAFAFAFAFAFA
310
FAFAFAFAFAFAFAFAFAFAFAFAFAFAFAFAFAFAFAFAFAFAFAFAFAFAFAFAFAFAFAFAFAFAFAFAFAFAFAFAFAFAFAFAFAFAFAFAFAFAFAFAFAFAFAFAFAFAFAFAFAFAFAFAFAFAFAFAFAFAFAFAFAFAFAFAFAFAFAFAFAFAFAFAFAFAFAFAFAFAFAFAFAFAFAFAFAFAFAFAFAFAFAFAFAFAFAFAFAFAFAFAFAFAFAFAFAFAFAFAFAFAFAFAFAFAFA
310
FAFAFAFAFAFAFAFAFAFAFAFAFAFAFAFAFAFAFAFAFAFAFAFAFAFAFAFAFAFAFAFAFAFAFAFAFAFAFAFAFAFAFAFAFAFAFAFAFAFAFAFAFAFAFAFAFAFAFAFAFAFAFAFAFAFAFAFAFAFAFAFAFAFAFAFAFAFAFAFAFAFAFAFAFAFAFAFAFAFAFAFAFAFAFAFAFAFAFAFAFAFAFAFAFAFAFAFAFAFAFAFAFAFAFAFAFAFAFAFAFAFAFAFAFAFAFA
310
FAFAFAFAFAFAFAFAFAFAFAFAFAFAFAFAFAFAFAFAFAFAFAFAFAFAFAFAFAFAFAFAFAFAFAFAFAFAFAFAFAFAFAFAFAFAFAFAFAFAFAFAFAFAFAFAFAFAFAFAFAFAFAFAFAFAFAFAFAFAFAFAFAFAFAFAFAFAFAFAFAFAFAFAFAFAFAFAFAFAFAFAFAFAFAFAFAFAFAFAFAFAFAFAFAFAFAFAFAFAFAFAFAFAFAFAFAFAFAFAFAFAFAFAFAFAFA
310
FAFAFAFAFAFAFAFAFAFAFAFAFAFAFAFAFAFAFAFAFAFAFAFAFAFAFAFAFAFAFAFAFAFAFAFAFAFAFAFAFAFAFAFAFAFAFAFAFAFAFAFAFAFAFAFAFAFAFAFAFAFAFAFAFAFAFAFAFAFAFAFAFAFAFAFAFAFAFAFAFAFAFAFAFAFAFAFAFAFAFAFAFAFAFAFAFAFAFAFAFAFAFAFAFAFAFAFAFAFAFAFAFAFAFAFAFAFAFAFAFAFAFAFAFAFAFA
310
FAFAFAFAFAFAFAFAFAFAFAFAFAFAFAFAFAFAFAFAFAFAFAFAFAFAFAFAFAFAFAFAFAFAFAFAFAFAFAFAFAFAFAFAFAFAFAFAFAFAFAFAFAFAFAFAFAFAFAFAFAFAFAFAFAFAFAFAFAFAFAFAFAFAFAFAFAFAFAFAFAFAFAFAFAFAFAFAFAFAFAFAFAFAFAFAFAFAFAFAFAFAFAFAFAFAFAFAFAFAFAFAFAFAFAFAFAFAFAFAFAFAFAFAFAFAFA
310
FAFAFAFAFAFAFAFAFAFAFAFAFAFAFAFAFAFAFAFAFAFAFAFAFAFAFAFAFAFAFAFAFAFAFAFAFAFAFAFAFAFAFAFAFAFAFAFAFAFAFAFAFAFAFAFAFAFAFAFAFAFAFAFAFAFAFAFAFAFAFAFAFAFAFAFAFAFAFAFAFAFAFAFAFAFAFAFAFAFAFAFAFAFAFAFAFAFAFAFAFAFAFAFAFAFAFAFAFAFAFAFAFAFAFAFAFAFAFAFAFAFAFAFAFAFAFA
310
FAFAFAFAFAFAFAFAFAFAFAFAFAFAFAFAFAFAFAFAFAFAFAFAFAFAFAFAFAFAFAFAFAFAFAFAFAFAFAFAFAFAFAFAFAFAFAFAFAFAFAFAFAFAFAFAFAFAFAFAFAFAFAFAFAFAFAFAFAFAFAFAFAFAFAFAFAFAFAFAFAFAFAFAFAFAFAFAFAFAFAFAFAFAFAFAFAFAFAFAFAFAFAFAFAFAFAFAFAFAFAFAFAFAFAFAFAFAFAFAFAFAFAFAFAFAFA
310
FAFAFAFAFAFAFAFAFAFAFAFAFAFAFAFAFAFAFAFAFAFAFAFAFAFAFAFAFAFAFAFAFAFAFAFAFAFAFAFAFAFAFAFAFAFAFAFAFAFAFAFAFAFAFAFAFAFAFAFAFAFAFAFAFAFAFAFAFAFAFAFAFAFAFAFAFAFAFAFAFAFAFAFAFAFAFAFAFAFAFAFAFAFAFAFAFAFAFAFAFAFAFAFAFAFAFAFAFAFAFAFAFAFAFAFAFAFAFAFAFAFAFAFAFAFAFA
310
FAFAFAFAFAFAFAFAFAFAFAFAFAFAFAFAFAFAFAFAFAFAFAFAFAFAFAFAFAFAFAFAFAFAFAFAFAFAFAFAFAFAFAFAFAFAFAFAFAFAFAFAFAFAFAFAFAFAFAFAFAFAFAFAFAFAFAFAFAFAFAFAFAFAFAFAFAFAFAFAFAFAFAFAFAFAFAFAFAFAFAFAFAFAFAFAFAFAFAFAFAFAFAFAFAFAFAFAFAFAFAFAFAFAFAFAFAFAFAFAFAFAFAFAFAFAFA
310
FAFAFAFAFAFAFAFAFAFAFAFAFAFAFAFAFAFAFAFAFAFAFAFAFAFAFAFAFAFAFAFAFAFAFAFAFAFAFAFAFAFAFAFAFAFAFAFAFAFAFAFAFAFAFAFAFAFAFAFAFAFAFAFAFAFAFAFAFAFAFAFAFAFAFAFAFAFAFAFAFAFAFAFAFAFAFAFAFAFAFAFAFAFAFAFAFAFAFAFAFAFAFAFAFAFAFAFAFAFAFAFAFAFAFAFAFAFAFAFAFAFAFAFAFAFAFA
310
FAFAFAFAFAFAFAFAFAFAFAFAFAFAFAFAFAFAFAFAFAFAFAFAFAFAFAFAFAFAFAFAFAFAFAFAFAFAFAFAFAFAFAFAFAFAFAFAFAFAFAFAFAFAFAFAFAFAFAFAFAFAFAFAFAFAFAFAFAFAFAFAFAFAFAFAFAFAFAFAFAFAFAFAFAFAFAFAFAFAFAFAFAFAFAFAFAFAFAFAFAFAFAFAFAFAFAFAFAFAFAFAFAFAFAFAFAFAFAFAFAFAFAFAFAFAFA
310
FAFAFAFAFAFAFAFAFAFAFAFAFAFAFAFAFAFAFAFAFAFAFAFAFAFAFAFAFAFAFAFAFAFAFAFAFAFAFAFAFAFAFAFAFAFAFAFAFAFAFAFAFAFAFAFAFAFAFAFAFAFAFAFAFAFAFAFAFAFAFAFAFAFAFAFAFAFAFAFAFAFAFAFAFAFAFAFAFAFAFAFAFAFAFAFAFAFAFAFAFAFAFAFAFAFAFAFA
  0
ENDSEC
  0
EOF
