  0
SECTION
  2
HEADER
  9
$ACADVER
  1
AC1015
  9
$ACADMAINTVER
 70
     6
  9
$DWGCODEPAGE
  3
ANSI_932
  9
$INSBASE
 10
0.0
 20
0.0
 30
0.0
  9
$EXTMIN
 10
1.768894400488545
 20
15.02402690701963
 30
0.0
  9
$EXTMAX
 10
184.4990436313044
 20
126.28081236501
 30
0.0
  9
$LIMMIN
 10
0.0
 20
0.0
  9
$LIMMAX
 10
12.0
 20
9.0
  9
$ORTHOMODE
 70
     0
  9
$REGENMODE
 70
     1
  9
$FILLMODE
 70
     1
  9
$QTEXTMODE
 70
     0
  9
$MIRRTEXT
 70
     1
  9
$LTSCALE
 40
1.0
  9
$ATTMODE
 70
     1
  9
$TEXTSIZE
 40
0.2
  9
$TRACEWID
 40
0.05
  9
$TEXTSTYLE
  7
Standard
  9
$CLAYER
  8
0
  9
$CELTYPE
  6
ByLayer
  9
$CECOLOR
 62
   256
  9
$CELTSCALE
 40
1.0
  9
$DISPSILH
 70
     0
  9
$DIMSCALE
 40
1.0
  9
$DIMASZ
 40
0.18
  9
$DIMEXO
 40
0.0625
  9
$DIMDLI
 40
0.38
  9
$DIMRND
 40
0.0
  9
$DIMDLE
 40
0.0
  9
$DIMEXE
 40
0.18
  9
$DIMTP
 40
0.0
  9
$DIMTM
 40
0.0
  9
$DIMTXT
 40
0.18
  9
$DIMCEN
 40
0.09
  9
$DIMTSZ
 40
0.0
  9
$DIMTOL
 70
     0
  9
$DIMLIM
 70
     0
  9
$DIMTIH
 70
     1
  9
$DIMTOH
 70
     1
  9
$DIMSE1
 70
     0
  9
$DIMSE2
 70
     0
  9
$DIMTAD
 70
     0
  9
$DIMZIN
 70
     0
  9
$DIMBLK
  1

  9
$DIMASO
 70
     1
  9
$DIMSHO
 70
     1
  9
$DIMPOST
  1

  9
$DIMAPOST
  1

  9
$DIMALT
 70
     0
  9
$DIMALTD
 70
     2
  9
$DIMALTF
 40
25.4
  9
$DIMLFAC
 40
1.0
  9
$DIMTOFL
 70
     0
  9
$DIMTVP
 40
0.0
  9
$DIMTIX
 70
     0
  9
$DIMSOXD
 70
     0
  9
$DIMSAH
 70
     0
  9
$DIMBLK1
  1

  9
$DIMBLK2
  1

  9
$DIMSTYLE
  2
Standard
  9
$DIMCLRD
 70
     0
  9
$DIMCLRE
 70
     0
  9
$DIMCLRT
 70
     0
  9
$DIMTFAC
 40
1.0
  9
$DIMGAP
 40
0.09
  9
$DIMJUST
 70
     0
  9
$DIMSD1
 70
     0
  9
$DIMSD2
 70
     0
  9
$DIMTOLJ
 70
     1
  9
$DIMTZIN
 70
     0
  9
$DIMALTZ
 70
     0
  9
$DIMALTTZ
 70
     0
  9
$DIMUPT
 70
     0
  9
$DIMDEC
 70
     4
  9
$DIMTDEC
 70
     4
  9
$DIMALTU
 70
     2
  9
$DIMALTTD
 70
     2
  9
$DIMTXSTY
  7
Standard
  9
$DIMAUNIT
 70
     0
  9
$DIMADEC
 70
     0
  9
$DIMALTRND
 40
0.0
  9
$DIMAZIN
 70
     0
  9
$DIMDSEP
 70
    46
  9
$DIMATFIT
 70
     3
  9
$DIMFRAC
 70
     0
  9
$DIMLDRBLK
  1

  9
$DIMLUNIT
 70
     2
  9
$DIMLWD
 70
    -2
  9
$DIMLWE
 70
    -2
  9
$DIMTMOVE
 70
     0
  9
$LUNITS
 70
     2
  9
$LUPREC
 70
     4
  9
$SKETCHINC
 40
0.1
  9
$FILLETRAD
 40
0.5
  9
$AUNITS
 70
     0
  9
$AUPREC
 70
     0
  9
$MENU
  1
.
  9
$ELEVATION
 40
0.0
  9
$PELEVATION
 40
0.0
  9
$THICKNESS
 40
0.0
  9
$LIMCHECK
 70
     0
  9
$CHAMFERA
 40
0.5
  9
$CHAMFERB
 40
0.5
  9
$CHAMFERC
 40
1.0
  9
$CHAMFERD
 40
0.0
  9
$SKPOLY
 70
     0
  9
$TDCREATE
 40
2459097.375891169
  9
$TDUCREATE
 40
2459097.000891169
  9
$TDUPDATE
 40
2459461.467951563
  9
$TDUUPDATE
 40
2459461.092951563
  9
$TDINDWG
 40
0.0625914931
  9
$TDUSRTIMER
 40
0.062591331
  9
$USRTIMER
 70
     1
  9
$ANGBASE
 50
0.0
  9
$ANGDIR
 70
     0
  9
$PDMODE
 70
     0
  9
$PDSIZE
 40
0.0
  9
$PLINEWID
 40
0.0
  9
$SPLFRAME
 70
     0
  9
$SPLINETYPE
 70
     6
  9
$SPLINESEGS
 70
     8
  9
$HANDSEED
  5
25FB
  9
$SURFTAB1
 70
     6
  9
$SURFTAB2
 70
     6
  9
$SURFTYPE
 70
     6
  9
$SURFU
 70
     6
  9
$SURFV
 70
     6
  9
$UCSBASE
  2

  9
$UCSNAME
  2

  9
$UCSORG
 10
0.0
 20
0.0
 30
0.0
  9
$UCSXDIR
 10
1.0
 20
0.0
 30
0.0
  9
$UCSYDIR
 10
0.0
 20
1.0
 30
0.0
  9
$UCSORTHOREF
  2

  9
$UCSORTHOVIEW
 70
     0
  9
$UCSORGTOP
 10
0.0
 20
0.0
 30
0.0
  9
$UCSORGBOTTOM
 10
0.0
 20
0.0
 30
0.0
  9
$UCSORGLEFT
 10
0.0
 20
0.0
 30
0.0
  9
$UCSORGRIGHT
 10
0.0
 20
0.0
 30
0.0
  9
$UCSORGFRONT
 10
0.0
 20
0.0
 30
0.0
  9
$UCSORGBACK
 10
0.0
 20
0.0
 30
0.0
  9
$PUCSBASE
  2

  9
$PUCSNAME
  2

  9
$PUCSORG
 10
0.0
 20
0.0
 30
0.0
  9
$PUCSXDIR
 10
1.0
 20
0.0
 30
0.0
  9
$PUCSYDIR
 10
0.0
 20
1.0
 30
0.0
  9
$PUCSORTHOREF
  2

  9
$PUCSORTHOVIEW
 70
     0
  9
$PUCSORGTOP
 10
0.0
 20
0.0
 30
0.0
  9
$PUCSORGBOTTOM
 10
0.0
 20
0.0
 30
0.0
  9
$PUCSORGLEFT
 10
0.0
 20
0.0
 30
0.0
  9
$PUCSORGRIGHT
 10
0.0
 20
0.0
 30
0.0
  9
$PUCSORGFRONT
 10
0.0
 20
0.0
 30
0.0
  9
$PUCSORGBACK
 10
0.0
 20
0.0
 30
0.0
  9
$USERI1
 70
     0
  9
$USERI2
 70
     0
  9
$USERI3
 70
     0
  9
$USERI4
 70
     0
  9
$USERI5
 70
     0
  9
$USERR1
 40
0.0
  9
$USERR2
 40
0.0
  9
$USERR3
 40
0.0
  9
$USERR4
 40
0.0
  9
$USERR5
 40
0.0
  9
$WORLDVIEW
 70
     1
  9
$SHADEDGE
 70
     3
  9
$SHADEDIF
 70
    70
  9
$TILEMODE
 70
     1
  9
$MAXACTVP
 70
    64
  9
$PINSBASE
 10
0.0
 20
0.0
 30
0.0
  9
$PLIMCHECK
 70
     0
  9
$PEXTMIN
 10
1.000000000000000E+20
 20
1.000000000000000E+20
 30
1.000000000000000E+20
  9
$PEXTMAX
 10
-1.000000000000000E+20
 20
-1.000000000000000E+20
 30
-1.000000000000000E+20
  9
$PLIMMIN
 10
0.0
 20
0.0
  9
$PLIMMAX
 10
12.0
 20
9.0
  9
$UNITMODE
 70
     0
  9
$VISRETAIN
 70
     1
  9
$PLINEGEN
 70
     0
  9
$PSLTSCALE
 70
     1
  9
$TREEDEPTH
 70
  3020
  9
$CMLSTYLE
  2
Standard
  9
$CMLJUST
 70
     0
  9
$CMLSCALE
 40
1.0
  9
$PROXYGRAPHICS
 70
     1
  9
$MEASUREMENT
 70
     0
  9
$CELWEIGHT
370
    -1
  9
$ENDCAPS
280
     0
  9
$JOINSTYLE
280
     0
  9
$LWDISPLAY
290
     1
  9
$INSUNITS
 70
     1
  9
$HYPERLINKBASE
  1

  9
$STYLESHEET
  1

  9
$XEDIT
290
     1
  9
$CEPSNTYPE
380
     0
  9
$PSTYLEMODE
290
     1
  9
$FINGERPRINTGUID
  2
{B7A8AC39-4BDE-4DE2-BF8A-FF6DF516E268}
  9
$VERSIONGUID
  2
{FAEB1C32-E019-11D5-929B-00C0DF256EC4}
  9
$EXTNAMES
290
     1
  9
$PSVPSCALE
 40
0.0
  9
$OLESTARTUP
290
     0
  0
ENDSEC
  0
SECTION
  2
CLASSES
  0
CLASS
  1
ACDBDICTIONARYWDFLT
  2
AcDbDictionaryWithDefault
  3
ObjectDBX Classes
 90
        0
280
     0
281
     0
  0
CLASS
  1
VISUALSTYLE
  2
AcDbVisualStyle
  3
ObjectDBX Classes
 90
     4095
280
     0
281
     0
  0
CLASS
  1
ACDBPLACEHOLDER
  2
AcDbPlaceHolder
  3
ObjectDBX Classes
 90
        0
280
     0
281
     0
  0
CLASS
  1
LAYOUT
  2
AcDbLayout
  3
ObjectDBX Classes
 90
        0
280
     0
281
     0
  0
CLASS
  1
SCALE
  2
AcDbScale
  3
ObjectDBX Classes
 90
     1153
280
     0
281
     0
  0
CLASS
  1
MATERIAL
  2
AcDbMaterial
  3
ObjectDBX Classes
 90
     1153
280
     0
281
     0
  0
CLASS
  1
TABLESTYLE
  2
AcDbTableStyle
  3
ObjectDBX Classes
 90
     4095
280
     0
281
     0
  0
CLASS
  1
MLEADERSTYLE
  2
AcDbMLeaderStyle
  3
ACDB_MLEADERSTYLE_CLASS
 90
     4095
280
     0
281
     0
  0
CLASS
  1
DICTIONARYVAR
  2
AcDbDictionaryVar
  3
ObjectDBX Classes
 90
        0
280
     0
281
     0
  0
CLASS
  1
SORTENTSTABLE
  2
AcDbSortentsTable
  3
ObjectDBX Classes
 90
        0
280
     0
281
     0
  0
ENDSEC
  0
SECTION
  2
TABLES
  0
TABLE
  2
VPORT
  5
8
102
{ACAD_XDICTIONARY
360
25BD
102
}
330
0
100
AcDbSymbolTable
 70
     1
  0
VPORT
  5
29
330
8
100
AcDbSymbolTableRecord
100
AcDbViewportTableRecord
  2
*Active
 70
     0
 10
0.0
 20
0.0
 11
1.0
 21
1.0
 12
-319.3557728912438
 22
-77.69198784910259
 13
0.0
 23
0.0
 14
0.5
 24
0.5
 15
0.5
 25
0.5
 16
0.0
 26
0.0
 36
1.0
 17
420.0000310907466
 27
148.5000657452101
 37
0.0
 40
136.313608344272
 41
1.629107981220657
 42
50.0
 43
0.0
 44
0.0
 50
0.0
 51
0.0
 71
     0
 72
   100
 73
     1
 74
     3
 75
     0
 76
     0
 77
     0
 78
     0
281
     0
 65
     1
110
0.0
120
0.0
130
0.0
111
1.0
121
0.0
131
0.0
112
0.0
122
1.0
132
0.0
 79
     0
146
0.0
  0
ENDTAB
  0
TABLE
  2
LTYPE
  5
5
330
0
100
AcDbSymbolTable
 70
     1
  0
LTYPE
  5
14
330
5
100
AcDbSymbolTableRecord
100
AcDbLinetypeTableRecord
  2
ByBlock
 70
     0
  3

 72
    65
 73
     0
 40
0.0
  0
LTYPE
  5
15
330
5
100
AcDbSymbolTableRecord
100
AcDbLinetypeTableRecord
  2
ByLayer
 70
     0
  3

 72
    65
 73
     0
 40
0.0
  0
LTYPE
  5
16
330
5
100
AcDbSymbolTableRecord
100
AcDbLinetypeTableRecord
  2
Continuous
 70
     0
  3
Solid line
 72
    65
 73
     0
 40
0.0
  0
ENDTAB
  0
TABLE
  2
LAYER
  5
2
330
0
100
AcDbSymbolTable
 70
     4
  0
LAYER
  5
10
330
2
100
AcDbSymbolTableRecord
100
AcDbLayerTableRecord
  2
0
 70
     0
 62
     7
  6
Continuous
370
    -3
390
F
  0
LAYER
  5
3B
330
2
100
AcDbSymbolTableRecord
100
AcDbLayerTableRecord
  2
レイヤー 1
 70
     0
 62
     7
  6
Continuous
370
    -3
390
F
  0
LAYER
  5
1FCE
330
2
100
AcDbSymbolTableRecord
100
AcDbLayerTableRecord
  2
寸法線
 70
     0
 62
     7
  6
Continuous
370
    20
390
F
1001
AcadStringInfo
1000
MIFCodePage
1070
     1
  0
LAYER
  5
1FD4
102
{ACAD_XDICTIONARY
360
1FD5
102
}
330
2
100
AcDbSymbolTableRecord
100
AcDbLayerTableRecord
  2
SIZE
 70
     0
 62
     9
  6
Continuous
370
    20
390
F
  0
ENDTAB
  0
TABLE
  2
STYLE
  5
3
330
0
100
AcDbSymbolTable
 70
     2
  0
STYLE
  5
11
330
3
100
AcDbSymbolTableRecord
100
AcDbTextStyleTableRecord
  2
Standard
 70
     0
 40
0.0
 41
1.0
 50
0.0
 71
     0
 42
0.2
  3
txt
  4

  0
STYLE
  5
1DDF
330
3
100
AcDbSymbolTableRecord
100
AcDbTextStyleTableRecord
  2
KANJI
 70
     0
 40
0.0
 41
1.0
 50
0.0
 71
     0
 42
4.0
  3
TXT
  4
BIGFONT
  0
ENDTAB
  0
TABLE
  2
VIEW
  5
6
330
0
100
AcDbSymbolTable
 70
     0
  0
ENDTAB
  0
TABLE
  2
UCS
  5
7
330
0
100
AcDbSymbolTable
 70
     0
  0
ENDTAB
  0
TABLE
  2
APPID
  5
9
330
0
100
AcDbSymbolTable
 70
    11
  0
APPID
  5
12
330
9
100
AcDbSymbolTableRecord
100
AcDbRegAppTableRecord
  2
ACAD
 70
     0
  0
APPID
  5
1DD0
330
9
100
AcDbSymbolTableRecord
100
AcDbRegAppTableRecord
  2
ACAD_MLEADERVER
 70
     0
  0
APPID
  5
1E05
330
9
100
AcDbSymbolTableRecord
100
AcDbRegAppTableRecord
  2
AcadStringInfo
 70
     0
  0
APPID
  5
1E06
330
9
100
AcDbSymbolTableRecord
100
AcDbRegAppTableRecord
  2
ACAD_NAV_VCDISPLAY
 70
     0
  0
APPID
  5
1E07
330
9
100
AcDbSymbolTableRecord
100
AcDbRegAppTableRecord
  2
ACAD_PSEXT
 70
     0
  0
APPID
  5
1FDA
330
9
100
AcDbSymbolTableRecord
100
AcDbRegAppTableRecord
  2
PLOTTRANSPARENCY
 70
     0
  0
APPID
  5
206C
330
9
100
AcDbSymbolTableRecord
100
AcDbRegAppTableRecord
  2
AcAecLayerStandard
 70
     0
  0
APPID
  5
206D
330
9
100
AcDbSymbolTableRecord
100
AcDbRegAppTableRecord
  2
ACCMTRANSPARENCY
 70
     0
  0
APPID
  5
2119
330
9
100
AcDbSymbolTableRecord
100
AcDbRegAppTableRecord
  2
ACAD_SPLINE_DATA
 70
     0
  0
APPID
  5
211A
330
9
100
AcDbSymbolTableRecord
100
AcDbRegAppTableRecord
  2
ACAD_SPLINE_DATA2
 70
     0
  0
APPID
  5
2205
330
9
100
AcDbSymbolTableRecord
100
AcDbRegAppTableRecord
  2
AcadAnnotative
 70
     0
  0
ENDTAB
  0
TABLE
  2
DIMSTYLE
  5
A
330
0
100
AcDbSymbolTable
 70
     3
100
AcDbDimStyleTable
  0
DIMSTYLE
105
27
330
A
100
AcDbSymbolTableRecord
100
AcDbDimStyleTableRecord
  2
Standard
 70
     0
178
     0
340
11
  0
DIMSTYLE
105
1E04
330
A
100
AcDbSymbolTableRecord
100
AcDbDimStyleTableRecord
  2
S １：１
 70
     0
 41
3.0
 42
0.5
 43
8.0
 44
1.0
 73
     0
 74
     0
 77
     3
 78
     8
 79
     2
140
3.5
141
5.0
143
0.03937007874016
147
1.0
171
     3
172
     1
178
     0
179
     1
271
     1
272
     1
274
     3
283
     0
284
     8
340
11
1001
AcadStringInfo
1000
MIFCodePage
1070
     1
  0
DIMSTYLE
105
1FD7
330
A
100
AcDbSymbolTableRecord
100
AcDbDimStyleTableRecord
  2
ISO-25
 70
     0
 41
2.5
 42
0.625
 43
3.75
 44
1.25
 73
     0
 74
     0
 77
     1
 78
     8
140
2.5
141
2.5
143
0.03937007874016
147
0.625
171
     3
172
     1
178
     0
271
     2
272
     2
274
     3
283
     0
284
     8
340
11
  0
ENDTAB
  0
TABLE
  2
BLOCK_RECORD
  5
1
330
0
100
AcDbSymbolTable
 70
     1
  0
BLOCK_RECORD
  5
1F
330
1
100
AcDbSymbolTableRecord
100
AcDbBlockTableRecord
  2
*Model_Space
340
22
  0
BLOCK_RECORD
  5
1B
330
1
100
AcDbSymbolTableRecord
100
AcDbBlockTableRecord
  2
*Paper_Space
340
1E
  0
BLOCK_RECORD
  5
23
330
1
100
AcDbSymbolTableRecord
100
AcDbBlockTableRecord
  2
*Paper_Space0
340
26
  0
ENDTAB
  0
ENDSEC
  0
SECTION
  2
BLOCKS
  0
BLOCK
  5
20
330
1F
100
AcDbEntity
  8
0
100
AcDbBlockBegin
  2
*Model_Space
 70
     0
 10
0.0
 20
0.0
 30
0.0
  3
*Model_Space
  1

  0
ENDBLK
  5
21
330
1F
100
AcDbEntity
  8
0
100
AcDbBlockEnd
  0
BLOCK
  5
1C
330
1B
100
AcDbEntity
 67
     1
  8
0
100
AcDbBlockBegin
  2
*Paper_Space
 70
     0
 10
0.0
 20
0.0
 30
0.0
  3
*Paper_Space
  1

  0
ENDBLK
  5
1D
330
1B
100
AcDbEntity
 67
     1
  8
0
100
AcDbBlockEnd
  0
BLOCK
  5
24
330
23
100
AcDbEntity
  8
0
100
AcDbBlockBegin
  2
*Paper_Space0
 70
     0
 10
0.0
 20
0.0
 30
0.0
  3
*Paper_Space0
  1

  0
ENDBLK
  5
25
330
23
100
AcDbEntity
  8
0
100
AcDbBlockEnd
  0
ENDSEC
  0
SECTION
  2
ENTITIES
  0
ELLIPSE
  5
257F
330
1F
100
AcDbEntity
  8
0
100
AcDbEllipse
 10
38.28913040048839
 20
124.1961158764063
 30
0.0
 11
-8.157398051345371
 21
0.0
 31
0.0
210
0.0
220
0.0
230
1.0
 40
0.255559
 41
3.117836582357699
 42
6.306941378411681
  0
ELLIPSE
  5
2580
330
1F
100
AcDbEntity
  8
0
100
AcDbEllipse
 10
38.28913040048839
 20
109.8999858764065
 30
0.0
 11
-5.438265367563582
 21
0.0
 31
0.0
210
0.0
220
0.0
230
1.0
 40
0.255559
 41
2.975355480018092
 42
6.449422480751287
  0
LINE
  5
2581
330
1F
100
AcDbEntity
  8
0
100
AcDbLine
 10
32.8508644004885
 20
109.8999858764065
 30
0.0
 11
30.13403440048843
 21
124.1465958764062
 31
0.0
  0
LINE
  5
2582
330
1F
100
AcDbEntity
  8
0
100
AcDbLine
 10
43.7273964004885
 20
109.8999858764065
 30
0.0
 11
46.44422640048835
 21
124.1465958764062
 31
0.0
  0
LINE
  5
2583
330
1F
100
AcDbEntity
  8
0
100
AcDbLine
 10
32.9258344004884
 20
109.6700118764067
 30
0.0
 11
33.5139104004884
 21
109.1463698764066
 31
0.0
  0
LINE
  5
2584
330
1F
100
AcDbEntity
  8
0
100
AcDbLine
 10
43.65242640048838
 20
109.6700118764067
 30
0.0
 11
43.06435040048838
 21
109.1463698764066
 31
0.0
  0
ELLIPSE
  5
2585
330
1F
100
AcDbEntity
  8
0
100
AcDbEllipse
 10
38.28913040048839
 20
109.0504938764063
 30
0.0
 11
-0.9544155720074086
 21
0.0
 31
0.0
210
0.0
220
0.0
230
1.0
 40
0.255559
 41
3.141592653589793
 42
6.283185307179586
  0
ELLIPSE
  5
2586
330
1F
100
AcDbEntity
  8
0
370
    13
100
AcDbEllipse
 10
38.28913040048839
 20
107.9276758764064
 30
0.0
 11
-0.9544155720074086
 21
0.0
 31
0.0
210
0.0
220
0.0
230
1.0
 40
0.255559
 41
3.141592653589793
 42
6.283185307179586
  0
LINE
  5
2587
330
1F
100
AcDbEntity
  8
0
100
AcDbLine
 10
37.33471440048835
 20
109.0504938764063
 30
0.0
 11
37.33471440048835
 21
107.9276758764064
 31
0.0
  0
LINE
  5
2588
330
1F
100
AcDbEntity
  8
0
100
AcDbLine
 10
39.24354640048843
 20
109.0504938764063
 30
0.0
 11
39.24354640048843
 21
107.9276758764064
 31
0.0
  0
LINE
  5
2589
330
1F
100
AcDbEntity
  8
0
370
    13
100
AcDbLine
 10
38.29420440048854
 20
108.1715818764066
 30
0.0
 11
38.29420440048854
 21
109.2943998764064
 31
0.0
  0
LINE
  5
258A
330
1F
100
AcDbEntity
  8
0
370
    13
100
AcDbLine
 10
38.07689040048855
 20
108.1654778764065
 30
0.0
 11
38.07689040048855
 21
109.2882958764064
 31
0.0
  0
LINE
  5
258B
330
1F
100
AcDbEntity
  8
0
370
    13
100
AcDbLine
 10
37.87390840048853
 20
108.1472938764065
 30
0.0
 11
37.87390840048853
 21
109.2701118764063
 31
0.0
  0
LINE
  5
258C
330
1F
100
AcDbEntity
  8
0
370
    13
100
AcDbLine
 10
37.6892144004885
 20
108.1173778764066
 30
0.0
 11
37.6892144004885
 21
109.2401958764064
 31
0.0
  0
LINE
  5
258D
330
1F
100
AcDbEntity
  8
0
370
    13
100
AcDbLine
 10
37.52639840048847
 20
108.0742938764067
 30
0.0
 11
37.52639840048847
 21
109.1971118764065
 31
0.0
  0
LINE
  5
258E
330
1F
100
AcDbEntity
  8
0
370
    13
100
AcDbLine
 10
37.38863240048842
 20
108.0084958764066
 30
0.0
 11
37.38863240048842
 21
109.1313138764064
 31
0.0
  0
LINE
  5
258F
330
1F
100
AcDbEntity
  8
0
370
    13
100
AcDbLine
 10
38.50137040048845
 20
108.1654778764065
 30
0.0
 11
38.50137040048845
 21
109.2882958764064
 31
0.0
  0
LINE
  5
2590
330
1F
100
AcDbEntity
  8
0
370
    13
100
AcDbLine
 10
38.70435040048848
 20
108.1472938764065
 30
0.0
 11
38.70435040048848
 21
109.2701118764063
 31
0.0
  0
LINE
  5
2591
330
1F
100
AcDbEntity
  8
0
370
    13
100
AcDbLine
 10
38.88904640048851
 20
108.1173778764066
 30
0.0
 11
38.88904640048851
 21
109.2401958764064
 31
0.0
  0
LINE
  5
2592
330
1F
100
AcDbEntity
  8
0
370
    13
100
AcDbLine
 10
39.05186240048853
 20
108.0742938764067
 30
0.0
 11
39.05186240048853
 21
109.1971118764065
 31
0.0
  0
LINE
  5
2593
330
1F
100
AcDbEntity
  8
0
370
    13
100
AcDbLine
 10
39.18962840048836
 20
108.0084958764066
 30
0.0
 11
39.18962840048836
 21
109.1313138764064
 31
0.0
  0
ELLIPSE
  5
2594
330
1F
100
AcDbEntity
  8
0
100
AcDbEllipse
 10
38.28913040048839
 20
109.4207598764066
 30
0.0
 11
-4.894438830807246
 21
0.0
 31
0.0
210
0.0
220
0.0
230
1.0
 40
0.255559
 41
1.76705377695862
 42
7.657724183810851
  0
LINE
  5
2595
330
1F
100
AcDbEntity
  8
0
100
AcDbLine
 10
38.3313244004885
 20
109.9482658764065
 30
0.0
 11
37.15828840048836
 21
109.8155318764063
 31
0.0
  0
LINE
  5
2596
330
1F
100
AcDbEntity
  8
0
100
AcDbLine
 10
37.15828840048836
 20
109.8155318764063
 30
0.0
 11
36.87853040048846
 21
109.5051298764067
 31
0.0
  0
LINE
  5
2597
330
1F
100
AcDbEntity
  8
0
100
AcDbLine
 10
38.3313244004885
 20
109.9482658764065
 30
0.0
 11
39.5048124004884
 21
109.8195858764063
 31
0.0
  0
LINE
  5
2598
330
1F
100
AcDbEntity
  8
0
100
AcDbLine
 10
39.5048124004884
 20
109.8195858764063
 30
0.0
 11
39.78564040048833
 21
109.5101518764065
 31
0.0
  0
LINE
  5
2599
330
1F
100
AcDbEntity
  8
0
370
    13
100
AcDbLine
 10
38.3313244004885
 20
109.5068098764065
 30
0.0
 11
37.15828840048836
 21
109.3740758764063
 31
0.0
  0
LINE
  5
259A
330
1F
100
AcDbEntity
  8
0
370
    13
100
AcDbLine
 10
37.15828840048836
 20
109.3740758764063
 30
0.0
 11
36.87853040048846
 21
109.0636738764066
 31
0.0
  0
LINE
  5
259B
330
1F
100
AcDbEntity
  8
0
100
AcDbLine
 10
36.87853040048846
 20
109.0636738764066
 30
0.0
 11
37.33471440048835
 21
108.9808318764064
 31
0.0
  0
LINE
  5
259C
330
1F
100
AcDbEntity
  8
0
370
    13
100
AcDbLine
 10
38.3313244004885
 20
109.5068098764065
 30
0.0
 11
39.5048124004884
 21
109.3781278764065
 31
0.0
  0
LINE
  5
259D
330
1F
100
AcDbEntity
  8
0
370
    13
100
AcDbLine
 10
39.5048124004884
 20
109.3781278764065
 30
0.0
 11
39.78564040048833
 21
109.0686938764062
 31
0.0
  0
LINE
  5
259E
330
1F
100
AcDbEntity
  8
0
100
AcDbLine
 10
39.78564040048833
 20
109.0686938764062
 30
0.0
 11
39.24354640048843
 21
108.9683158764066
 31
0.0
  0
LINE
  5
259F
330
1F
100
AcDbEntity
  8
0
100
AcDbLine
 10
36.87853040048846
 20
109.5051298764067
 30
0.0
 11
36.87853040048846
 21
109.0636738764066
 31
0.0
  0
LINE
  5
25A0
330
1F
100
AcDbEntity
  8
0
370
    13
100
AcDbLine
 10
37.15828840048836
 20
109.8155318764063
 30
0.0
 11
37.15828840048836
 21
109.3740758764063
 31
0.0
  0
LINE
  5
25A1
330
1F
100
AcDbEntity
  8
0
370
    13
100
AcDbLine
 10
38.3313244004885
 20
109.9482658764065
 30
0.0
 11
38.3313244004885
 21
109.5068098764065
 31
0.0
  0
LINE
  5
25A2
330
1F
100
AcDbEntity
  8
0
370
    13
100
AcDbLine
 10
39.5048124004884
 20
109.8195858764063
 30
0.0
 11
39.5048124004884
 21
109.3781278764065
 31
0.0
  0
LINE
  5
25A3
330
1F
100
AcDbEntity
  8
0
100
AcDbLine
 10
39.78564040048833
 20
109.5101518764065
 30
0.0
 11
39.78564040048833
 21
109.0686938764062
 31
0.0
  0
ELLIPSE
  5
25A4
330
1F
100
AcDbEntity
  8
0
100
AcDbEllipse
 10
38.28913040048839
 20
107.9276758764064
 30
0.0
 11
-0.9544155720074086
 21
0.0
 31
0.0
210
0.0
220
0.0
230
1.0
 40
0.639299
 41
0.0
 42
0.9365179887338829
  0
ELLIPSE
  5
25A5
330
1F
100
AcDbEntity
  8
0
100
AcDbEllipse
 10
38.28913040048839
 20
107.9276758764064
 30
0.0
 11
-0.9544155720074086
 21
0.0
 31
0.0
210
0.0
220
0.0
230
1.0
 40
0.639299
 41
2.20507466485591
 42
3.141592653589793
  0
ELLIPSE
  5
25A6
330
1F
100
AcDbEntity
  8
0
100
AcDbEllipse
 10
38.28913040048839
 20
107.5917078764066
 30
0.0
 11
-0.5655832037699609
 21
0.0
 31
0.0
210
0.0
220
0.0
230
1.0
 40
0.345114
 41
3.141592653589793
 42
6.283185307179586
  0
LINE
  5
25A7
330
1F
100
AcDbEntity
  8
0
100
AcDbLine
 10
37.72354640048844
 20
107.5917078764066
 30
0.0
 11
37.72354640048844
 21
51.84726187640641
 31
0.0
  0
LINE
  5
25A8
330
1F
100
AcDbEntity
  8
0
100
AcDbLine
 10
38.85471240048834
 20
107.5917078764066
 30
0.0
 11
38.85471240048834
 21
51.84726187640641
 31
0.0
  0
ELLIPSE
  5
25A9
330
1F
100
AcDbEntity
  8
0
100
AcDbEllipse
 10
38.28913040048839
 20
46.29690587640668
 30
0.0
 11
-36.52023586053906
 21
0.0
 31
0.0
210
0.0
220
0.0
230
1.0
 40
0.151999
 41
3.141592653589792
 42
6.307398601874983
  0
ELLIPSE
  5
25AA
330
1F
100
AcDbEntity
  8
0
100
AcDbEllipse
 10
38.28913040048839
 20
28.64049187640664
 30
0.0
 11
-36.52023586053906
 21
0.0
 31
0.0
210
0.0
220
0.0
230
1.0
 40
0.151999
 41
2.53046238441782
 42
6.894315576351557
  0
SPLINE
  5
25AB
330
1F
100
AcDbEntity
  8
0
370
     0
100
AcDbSpline
210
0.0
220
0.0
230
1.0
 70
     8
 71
     3
 72
   258
 73
   254
 74
     0
 42
0.000000001
 43
0.0
 40
0.0373448559730156
 40
0.0373448559730156
 40
0.0373448559730156
 40
0.0373448559730156
 40
0.1828824580725053
 40
0.3613388390050301
 40
0.5353212530959357
 40
0.7047834382394265
 40
0.8696807905037558
 40
1.029970394971244
 40
1.185611056820904
 40
1.336563332646931
 40
1.482789562041925
 40
1.624253899550442
 40
1.76092234724668
 40
1.892762788459532
 40
2.019745023641372
 40
2.141840810186772
 40
2.259023909372968
 40
2.371270145869844
 40
2.478557489029651
 40
2.580866171348846
 40
2.678178869597829
 40
2.770480990539791
 40
2.857761129693553
 40
2.940011814086172
 40
3.017230707113987
 40
3.089422557740914
 40
3.156602332656168
 40
3.218800193246779
 40
3.276069270688555
 40
3.328497510343916
 40
3.376225057053541
 40
3.419468401446441
 40
3.458551214125269
 40
3.493938750691187
 40
3.526267743308399
 40
3.556358444985012
 40
3.585194282071316
 40
3.613862333900689
 40
3.643464250427806
 40
3.67502273603967
 40
3.70941124055529
 40
3.747321866652353
 40
3.789269016933487
 40
3.835615485732692
 40
3.886606615860216
 40
3.942402733892171
 40
4.003105423157615
 40
4.068776854367888
 40
4.139453146519505
 40
4.21515322326549
 40
4.295884519562359
 40
4.381646588996813
 40
4.472433355144333
 40
4.568234505448832
 40
4.669036350821104
 40
4.774822355961955
 40
4.885573468548822
 40
5.001268326553554
 40
5.121883392338614
 40
5.247393043179925
 40
5.377769636157444
 40
5.512983558180291
 40
5.653003267539238
 40
5.797795330728646
 40
5.947324456684867
 40
6.101553529638474
 40
6.260443641220149
 40
6.423954122139532
 40
6.592042573578126
 40
6.764664898342789
 40
6.941775331780766
 40
7.123326472439179
 40
7.309269312448395
 40
7.49955326761282
 40
7.694126207199575
 40
7.89293448342343
 40
8.095922960633352
 40
8.303035044212397
 40
8.514212709207273
 40
8.729396528707758
 40
8.948525701998399
 40
9.171538082506594
 40
9.39837020557182
 40
9.628957316060788
 40
9.863233395852971
 40
10.10113119122016
 40
10.34258224012252
 40
10.58751689944251
 40
10.83586437217665
 40
11.08755273460344
 40
11.34250896344469
 40
11.60065896303549
 40
11.86192759251724
 40
12.12623869306601
 40
12.39351511516797
 40
12.66367874595143
 40
12.93665053658462
 40
13.21235052974658
 40
13.49069788717775
 40
13.77161091731562
 40
14.05500710302
 40
14.34080312939145
 40
14.62891491168559
 40
14.91925762332522
 40
15.21174572401151
 40
15.50629298793472
 40
15.80281253208443
 40
16.10121684465858
 40
16.40141781357004
 40
16.7033267550491
 40
17.00685444233968
 40
17.31191113448664
 40
17.61840660521121
 40
17.92625017187126
 40
18.23535072450272
 40
18.54561675493815
 40
18.85695638599831
 40
19.16927740075218
 40
19.48248727184076
 40
19.79649319085976
 40
20.11120209779607
 40
20.42652071051271
 40
20.74235555427704
 40
21.05861299132653
 40
21.37519925046657
 40
21.69202045669461
 40
22.00898266084489
 40
22.32599186924778
 40
22.64295407339806
 40
22.9597752796261
 40
23.27636153876614
 40
23.59261897581563
 40
23.90845381957996
 40
24.2237724322966
 40
24.5384813392329
 40
24.85248725825191
 40
25.16569712934048
 40
25.47801814409435
 40
25.7893577751545
 40
26.09962380558992
 40
26.40872435822138
 40
26.71656792488143
 40
27.02306339560599
 40
27.32812008775295
 40
27.63164777504353
 40
27.93355671652259
 40
28.23375768543404
 40
28.53216199800818
 40
28.8286815421579
 40
29.1232288060811
 40
29.41571690676739
 40
29.70605961840701
 40
29.99417140070115
 40
30.27996742707259
 40
30.56336361277696
 40
30.84427664291482
 40
31.12262400034599
 40
31.39832399350794
 40
31.67129578414113
 40
31.94145941492458
 40
32.20873583702653
 40
32.4730469375753
 40
32.73431556705703
 40
32.99246556664783
 40
33.24742179548907
 40
33.49911015791586
 40
33.74745763064998
 40
33.99239228996996
 40
34.23384333887231
 40
34.47174113423949
 40
34.70601721403167
 40
34.93660432452062
 40
35.16343644758584
 40
35.38644882809403
 40
35.60557800138466
 40
35.82076182088513
 40
36.03193948588
 40
36.23905156945904
 40
36.44204004666895
 40
36.64084832289279
 40
36.83542126247954
 40
37.02570521764395
 40
37.21164805765316
 40
37.39319919831156
 40
37.57030963174952
 40
37.74293195651418
 40
37.91102040795277
 40
38.07453088887214
 40
38.2334210004538
 40
38.3876500734074
 40
38.53717919936361
 40
38.68197126255301
 40
38.82199097191194
 40
38.95720489393478
 40
39.08758148691229
 40
39.21309113775359
 40
39.33370620353863
 40
39.44940106154336
 40
39.5601521741302
 40
39.66593817927104
 40
39.7667400246433
 40
39.86254117494779
 40
39.9533279410953
 40
40.03909001052974
 40
40.11982130682659
 40
40.19552138357257
 40
40.26619767572417
 40
40.33186910693443
 40
40.39257179619987
 40
40.44836791423181
 40
40.49935904435932
 40
40.54570551315852
 40
40.58765266343964
 40
40.62556328953669
 40
40.6599517940523
 40
40.69151027966416
 40
40.72111219619128
 40
40.74978024802065
 40
40.77861608510695
 40
40.80870678678357
 40
40.84103577940079
 40
40.87642331596672
 40
40.91550612864555
 40
40.95874947303847
 40
41.0064770197481
 40
41.05890525940347
 40
41.11617433684526
 40
41.17837219743588
 40
41.24555197235115
 40
41.31774382297809
 40
41.39496271600592
 40
41.47721340039855
 40
41.56449353955232
 40
41.6567956604943
 40
41.7541083587433
 40
41.85641704106251
 40
41.96370438422232
 40
42.07595062071921
 40
42.19313371990542
 40
42.31522950645083
 40
42.44221174163269
 40
42.57405218284555
 40
42.71072063054179
 40
42.85218496805032
 40
42.99841119744533
 40
43.14936347327137
 40
43.30500413512105
 40
43.46529373958854
 40
43.63019109185288
 40
43.79965327699639
 40
43.9736356910873
 40
44.15209207201984
 40
44.33497453009186
 40
44.33497453009186
 40
44.33497453009186
 40
44.33497453009186
 10
68.19920324716874
 20
25.64648034786857
 30
0.0
 10
68.2939904578716
 20
25.66719941433636
 30
0.0
 10
68.50486410326972
 20
25.71396912931838
 30
0.0
 10
68.82845008174674
 20
25.78818533242444
 30
0.0
 10
69.16691524109594
 20
25.86882302625023
 30
0.0
 10
69.49587827057532
 20
25.95028501937455
 30
0.0
 10
69.81522660279076
 20
26.0325386166484
 30
0.0
 10
70.12484912071388
 20
26.11554965006659
 30
0.0
 10
70.42463612804751
 20
26.19928228896848
 30
0.0
 10
70.71447916084436
 20
26.28369877675838
 30
0.0
 10
70.99427080919124
 20
26.36875911682061
 30
0.0
 10
71.26390450326404
 20
26.45442068480467
 30
0.0
 10
71.52327427408092
 20
26.54063775164256
 30
0.0
 10
71.77227448658552
 20
26.62736089419847
 30
0.0
 10
72.01079954892795
 20
26.71453626516828
 30
0.0
 10
72.23874360520882
 20
26.80210468624652
 30
0.0
 10
72.45600022624195
 20
26.89000051947657
 30
0.0
 10
72.66246212409511
 20
26.97815026077448
 30
0.0
 10
72.85802093388885
 20
27.06647078695429
 30
0.0
 10
73.04256713388328
 20
27.15486717438231
 30
0.0
 10
73.21599021717249
 20
27.24322999543634
 30
0.0
 10
73.37817929239601
 20
27.33143199350267
 30
0.0
 10
73.52902438621665
 20
27.4193240477263
 30
0.0
 10
73.66841885861506
 20
27.50673038333449
 30
0.0
 10
73.79626353491291
 20
27.59344309464056
 30
0.0
 10
73.9124734104778
 20
27.67921628094033
 30
0.0
 10
74.01698807574805
 20
27.76376053708842
 30
0.0
 10
74.10978726069085
 20
27.84673931207059
 30
0.0
 10
74.19091290307348
 20
27.92776988237635
 30
0.0
 10
74.26049847628794
 20
28.00643342962636
 30
0.0
 10
74.31880424471889
 20
28.08230068259642
 30
0.0
 10
74.36625274759673
 20
28.15498072379629
 30
0.0
 10
74.4034517737298
 20
28.22419852611453
 30
0.0
 10
74.43118421402916
 20
28.28989814326648
 30
0.0
 10
74.45034158851423
 20
28.35235115976653
 30
0.0
 10
74.46179042834434
 20
28.41222883996048
 30
0.0
 10
74.4661928377841
 20
28.47058746043664
 30
0.0
 10
74.46384063411121
 20
28.52873883922454
 30
0.0
 10
74.4545750394898
 20
28.58803129622644
 30
0.0
 10
74.43783090245167
 20
28.6496170529446
 30
0.0
 10
74.41278369637168
 20
28.71429027138644
 30
0.0
 10
74.37853248717376
 20
28.78243865362052
 30
0.0
 10
74.3342515042241
 20
28.85409440516029
 30
0.0
 10
74.27927685994338
 20
28.92903694506246
 30
0.0
 10
74.21313144655325
 20
29.00690082441466
 30
0.0
 10
74.1355094894757
 20
29.08726195954629
 30
0.0
 10
74.04624311998647
 20
29.16969476207638
 30
0.0
 10
73.94526617692533
 20
29.25380397776841
 30
0.0
 10
73.83258280124757
 20
29.33923869973265
 30
0.0
 10
73.70824319381133
 20
29.42569552671845
 30
0.0
 10
73.57232623678193
 20
29.51291595531226
 30
0.0
 10
73.424927677989
 20
29.60068122867657
 30
0.0
 10
73.26615243727066
 20
29.68880647371467
 30
0.0
 10
73.09610980077947
 20
29.77713506035858
 30
0.0
 10
72.91491056137421
 20
29.86553358962025
 30
0.0
 10
72.72266543111643
 20
29.95388763177849
 30
0.0
 10
72.51948426278433
 20
30.04209819512258
 30
0.0
 10
72.30547577098879
 20
30.13007884517052
 30
0.0
 10
72.08074755049053
 20
30.2177533759606
 30
0.0
 10
71.84540626172408
 20
30.30505393697027
 30
0.0
 10
71.59955790156347
 20
30.39191952985463
 30
0.0
 10
71.343308108756
 20
30.47829480235229
 30
0.0
 10
71.07676247371798
 20
30.5641290797004
 30
0.0
 10
70.8000268353103
 20
30.64937558533635
 30
0.0
 10
70.51320755535473
 20
30.73399081236645
 30
0.0
 10
70.21641176667482
 20
30.81793401523252
 30
0.0
 10
69.90974759349503
 20
30.90116679733834
 30
0.0
 10
69.59332434478985
 20
30.98365277549434
 30
0.0
 10
69.26725268215252
 20
31.06535730601232
 30
0.0
 10
68.93164476421568
 20
31.14624726047638
 30
0.0
 10
68.58661436982653
 20
31.22629084160659
 30
0.0
 10
68.23227700217195
 20
31.30545743168856
 30
0.0
 10
67.86874997592851
 20
31.3837174674624
 30
0.0
 10
67.49615248936358
 20
31.46104233663451
 30
0.0
 10
67.11460568311965
 20
31.53740429212636
 30
0.0
 10
66.72423268723652
 20
31.61277638088465
 30
0.0
 10
66.32515865778579
 20
31.68713238473462
 30
0.0
 10
65.91751080432802
 20
31.76044677119231
 30
0.0
 10
65.50141840925427
 20
31.83269465253867
 30
0.0
 10
65.07701283993812
 20
31.90385175180624
 30
0.0
 10
64.64442755451184
 20
31.97389437451663
 30
0.0
 10
64.20379810196961
 20
32.04279938523465
 30
0.0
 10
63.75526211721764
 20
32.11054418819246
 30
0.0
 10
63.29895931160628
 20
32.17710671131241
 30
0.0
 10
62.83503145941792
 20
32.2424653931104
 30
0.0
 10
62.36362238071548
 20
32.30659917203653
 30
0.0
 10
61.88487792091952
 20
32.36948747787452
 30
0.0
 10
61.39894592742122
 20
32.43111022486452
 30
0.0
 10
60.90597622351426
 20
32.49144780634848
 30
0.0
 10
60.40612057988939
 20
32.55048109062424
 30
0.0
 10
59.89953268390356
 20
32.60819141789867
 30
0.0
 10
59.38636810681943
 20
32.66456059813451
 30
0.0
 10
58.86678426918253
 20
32.71957090966058
 30
0.0
 10
58.34094040448623
 20
32.77320509844063
 30
0.0
 10
57.80899752126108
 20
32.82544637788047
 30
0.0
 10
57.27111836370683
 20
32.87627842910039
 30
0.0
 10
56.72746737097806
 20
32.92568540160224
 30
0.0
 10
56.17821063521957
 20
32.9736519142463
 30
0.0
 10
55.62351585843932
 20
33.02016305649855
 30
0.0
 10
55.06355230830128
 20
33.06520438989461
 30
0.0
 10
54.49849077290902
 20
33.10876194968629
 30
0.0
 10
53.92850351464837
 20
33.15082224661425
 30
0.0
 10
53.35376422315154
 20
33.19137226879244
 30
0.0
 10
52.77444796743545
 20
33.23039948366856
 30
0.0
 10
52.19073114727236
 20
33.26789184004034
 30
0.0
 10
51.60279144383618
 20
33.30383777010244
 30
0.0
 10
51.0108077696748
 20
33.33822619149047
 30
0.0
 10
50.4149602180478
 20
33.37104650935058
 30
0.0
 10
49.81543001167007
 20
33.40228861835264
 30
0.0
 10
49.21239945090157
 20
33.43194290469652
 30
0.0
 10
48.60605186141699
 20
33.46000024806032
 30
0.0
 10
47.99657154138983
 20
33.48645202349841
 30
0.0
 10
47.38414370822535
 20
33.51129010326637
 30
0.0
 10
46.76895444487197
 20
33.53450685858039
 30
0.0
 10
46.15119064574107
 20
33.55609516129849
 30
0.0
 10
45.53103996226697
 20
33.57604838550257
 30
0.0
 10
44.9086907481326
 20
33.59436040899633
 30
0.0
 10
44.28433200419001
 20
33.61102561470867
 30
0.0
 10
43.65815332310014
 20
33.62603889198241
 30
0.0
 10
43.03034483372268
 20
33.63939563776845
 30
0.0
 10
42.40109714527513
 20
33.65109175770446
 30
0.0
 10
41.77060129129178
 20
33.66112366708027
 30
0.0
 10
41.13904867340445
 20
33.66948829169238
 30
0.0
 10
40.50663100496969
 20
33.67618306857245
 30
0.0
 10
39.87354025456717
 20
33.68120594660665
 30
0.0
 10
39.23996858939201
 20
33.68455538702634
 30
0.0
 10
38.60610831856663
 20
33.68623036378055
 30
0.0
 10
37.97215183639175
 20
33.68623036378055
 30
0.0
 10
37.33829156556637
 20
33.68455538702634
 30
0.0
 10
36.7047199003912
 20
33.68120594660665
 30
0.0
 10
36.07162914998868
 20
33.67618306857245
 30
0.0
 10
35.43921148155393
 20
33.66948829169238
 30
0.0
 10
34.80765886366659
 20
33.66112366708027
 30
0.0
 10
34.17716300968324
 20
33.65109175770446
 30
0.0
 10
33.54791532123569
 20
33.63939563776845
 30
0.0
 10
32.92010683185823
 20
33.62603889198241
 30
0.0
 10
32.29392815076837
 20
33.61102561470867
 30
0.0
 10
31.66956940682577
 20
33.59436040899633
 30
0.0
 10
31.04722019269139
 20
33.57604838550257
 30
0.0
 10
30.4270695092173
 20
33.55609516129849
 30
0.0
 10
29.8093057100864
 20
33.53450685858039
 30
0.0
 10
29.19411644673302
 20
33.51129010326637
 30
0.0
 10
28.58168861356854
 20
33.48645202349841
 30
0.0
 10
27.97220829354161
 20
33.46000024806032
 30
0.0
 10
27.3658607040568
 20
33.43194290469652
 30
0.0
 10
26.76283014328829
 20
33.40228861835264
 30
0.0
 10
26.16329993691057
 20
33.37104650935058
 30
0.0
 10
25.56745238528357
 20
33.33822619149047
 30
0.0
 10
24.97546871112241
 20
33.30383777010244
 30
0.0
 10
24.38752900768624
 20
33.26789184004034
 30
0.0
 10
23.80381218752292
 20
33.23039948366856
 30
0.0
 10
23.22449593180682
 20
33.19137226879244
 30
0.0
 10
22.64975664031
 20
33.15082224661425
 30
0.0
 10
22.07976938204957
 20
33.10876194968629
 30
0.0
 10
21.51470784665731
 20
33.06520438989461
 30
0.0
 10
20.95474429651905
 20
33.02016305649855
 30
0.0
 10
20.40004951973902
 20
32.9736519142463
 30
0.0
 10
19.85079278398053
 20
32.92568540160224
 30
0.0
 10
19.30714179125176
 20
32.87627842910039
 30
0.0
 10
18.76926263369752
 20
32.82544637787866
 30
0.0
 10
18.23731975047236
 20
32.77320509844063
 30
0.0
 10
17.71147588577606
 20
32.71957090966058
 30
0.0
 10
17.19189204813939
 20
32.66456059813451
 30
0.0
 10
16.67872747105526
 20
32.60819141789867
 30
0.0
 10
16.17213957506921
 20
32.55048109062424
 30
0.0
 10
15.67228393144434
 20
32.49144780634848
 30
0.0
 10
15.1793142275376
 20
32.43111022486452
 30
0.0
 10
14.69338223403907
 20
32.36948747787225
 30
0.0
 10
14.21463777424311
 20
32.30659917203653
 30
0.0
 10
13.7432286955409
 20
32.2424653931104
 30
0.0
 10
13.27930084335231
 20
32.17710671131241
 30
0.0
 10
12.82299803774118
 20
32.11054418819246
 30
0.0
 10
12.37446205298921
 20
32.04279938523465
 30
0.0
 10
11.93383260044699
 20
31.97389437451663
 30
0.0
 10
11.50124731502093
 20
31.90385175180624
 30
0.0
 10
11.07684174570478
 20
31.83269465253867
 30
0.0
 10
10.66074935063081
 20
31.76044677119049
 30
0.0
 10
10.25310149717303
 20
31.68713238473462
 30
0.0
 10
9.8540274677223
 20
31.61277638088465
 30
0.0
 10
9.463654471839174
 20
31.53740429212636
 30
0.0
 10
9.082107665595242
 20
31.46104233663451
 30
0.0
 10
8.709510179030541
 20
31.3837174674624
 30
0.0
 10
8.345983152787095
 20
31.30545743168856
 30
0.0
 10
7.991645785132516
 20
31.22629084160659
 30
0.0
 10
7.646615390743602
 20
31.14624726047638
 30
0.0
 10
7.311007472806534
 20
31.06535730601232
 30
0.0
 10
6.984935810169201
 20
30.98365277549252
 30
0.0
 10
6.668512561464023
 20
30.90116679733834
 30
0.0
 10
6.361848388284226
 20
30.81793401523024
 30
0.0
 10
6.065052599604552
 20
30.73399081236463
 30
0.0
 10
5.778233319648972
 20
30.64937558533635
 30
0.0
 10
5.5014976812413
 20
30.5641290797004
 30
0.0
 10
5.234952046203272
 20
30.47829480235229
 30
0.0
 10
4.978702253395806
 20
30.39191952985463
 30
0.0
 10
4.732853893235198
 20
30.30505393697027
 30
0.0
 10
4.497512604468977
 20
30.21775337595833
 30
0.0
 10
4.272784383970713
 20
30.13007884517052
 30
0.0
 10
4.058775892175174
 20
30.04209819512258
 30
0.0
 10
3.85559472384308
 20
29.95388763177849
 30
0.0
 10
3.663349593585291
 20
29.86553358961843
 30
0.0
 10
3.482150354180032
 20
29.77713506035631
 30
0.0
 10
3.312107717688843
 20
29.68880647371467
 30
0.0
 10
3.153332476970501
 20
29.60068122867657
 30
0.0
 10
3.005933918177572
 20
29.51291595531044
 30
0.0
 10
2.870016961148178
 20
29.42569552671845
 30
0.0
 10
2.745677353712164
 20
29.33923869973038
 30
0.0
 10
2.632993978034403
 20
29.25380397776841
 30
0.0
 10
2.532017034973261
 20
29.16969476207638
 30
0.0
 10
2.442750665484265
 20
29.08726195954629
 30
0.0
 10
2.365128708406484
 20
29.00690082441466
 30
0.0
 10
2.29898329501658
 20
28.92903694506246
 30
0.0
 10
2.244008650735861
 20
28.85409440516029
 30
0.0
 10
2.199727667785975
 20
28.78243865362052
 30
0.0
 10
2.165476458588284
 20
28.71429027138644
 30
0.0
 10
2.140429252508294
 20
28.6496170529446
 30
0.0
 10
2.123685115470163
 20
28.58803129622644
 30
0.0
 10
2.114419520848752
 20
28.52873883922454
 30
0.0
 10
2.112067317175853
 20
28.47058746043664
 30
0.0
 10
2.116469726615616
 20
28.41222883996048
 30
0.0
 10
2.127918566445725
 20
28.35235115976426
 30
0.0
 10
2.147075940931028
 20
28.28989814326648
 30
0.0
 10
2.174808381230161
 20
28.22419852611453
 30
0.0
 10
2.212007407363455
 20
28.15498072379629
 30
0.0
 10
2.259455910241069
 20
28.08230068259642
 30
0.0
 10
2.317761678672024
 20
28.00643342962636
 30
0.0
 10
2.387347251886705
 20
27.92776988237635
 30
0.0
 10
2.468472894269336
 20
27.84673931207059
 30
0.0
 10
2.561272079212142
 20
27.76376053708842
 30
0.0
 10
2.665786744482613
 20
27.67921628094033
 30
0.0
 10
2.781996620047504
 20
27.59344309464056
 30
0.0
 10
2.909841296345132
 20
27.50673038333449
 30
0.0
 10
3.049235768743539
 20
27.4193240477263
 30
0.0
 10
3.200080862564175
 20
27.33143199350267
 30
0.0
 10
3.362269937787925
 20
27.24322999543634
 30
0.0
 10
3.535693021077133
 20
27.15486717438231
 30
0.0
 10
3.720239221071562
 20
27.06647078695429
 30
0.0
 10
3.915798030865528
 20
26.97815026077448
 30
0.0
 10
4.12225992871846
 20
26.89000051947657
 30
0.0
 10
4.339516549751817
 20
26.80210468624652
 30
0.0
 10
4.567460606032466
 20
26.71453626516828
 30
0.0
 10
4.805985668375126
 20
26.62736089419847
 30
0.0
 10
5.054985880879723
 20
26.54063775164256
 30
0.0
 10
5.314355651696598
 20
26.45442068480467
 30
0.0
 10
5.583989345769407
 20
26.36875911682061
 30
0.0
 10
5.863780994116279
 20
26.28369877675656
 30
0.0
 10
6.153624026913132
 20
26.19928228896848
 30
0.0
 10
6.453411034246994
 20
26.11554965006659
 30
0.0
 10
6.763033552170111
 20
26.0325386166484
 30
0.0
 10
7.082381884385324
 20
25.95028501937455
 30
0.0
 10
7.411344913864934
 20
25.86882302625023
 30
0.0
 10
7.749810073214132
 20
25.78818533242444
 30
0.0
 10
8.097662807767858
 20
25.70840341690442
 30
0.0
 10
8.332886534952888
 20
25.65643783504053
 30
0.0
 10
8.452036284693815
 20
25.63058782297836
 30
0.0
  0
LINE
  5
25AC
330
1F
100
AcDbEntity
  8
0
100
AcDbLine
 10
1.779764400488386
 20
46.4323318764065
 30
0.0
 11
1.768894400488545
 21
28.64049187640664
 31
0.0
  0
LINE
  5
25AD
330
1F
100
AcDbEntity
  8
0
100
AcDbLine
 10
74.80936640048846
 20
46.29690587640668
 30
0.0
 11
74.80936640048846
 21
28.64049187640664
 31
0.0
  0
ELLIPSE
  5
25AE
330
1F
100
AcDbEntity
  8
0
100
AcDbEllipse
 10
38.28913040048839
 20
23.69851987640656
 30
0.0
 11
-29.9100731697815
 21
0.0
 31
0.0
210
0.0
220
0.0
230
1.0
 40
0.151999
 41
2.498091544796492
 42
6.926686415972886
  0
SPLINE
  5
25AF
330
1F
100
AcDbEntity
  8
0
370
     0
100
AcDbSpline
210
0.0
220
0.0
230
1.0
 70
     8
 71
     3
 72
   261
 73
   257
 74
     0
 42
0.000000001
 43
0.0
 40
0.0348848573080235
 40
0.0348848573080235
 40
0.0348848573080235
 40
0.0348848573080235
 40
0.1566365837141379
 40
0.3096939352886017
 40
0.4591292041300574
 40
0.6049007484772058
 40
0.7469681477285369
 40
0.8852922129787293
 40
1.019834995374785
 40
1.150559791822739
 40
1.277431147485192
 40
1.400414854411066
 40
1.519477945539056
 40
1.634588683227942
 40
1.745716541415191
 40
1.852832180534164
 40
1.955907414506574
 40
2.05491516960155
 40
2.149829435936864
 40
2.240625214260096
 40
2.327278464000182
 40
2.409766064428835
 40
2.488065810761684
 40
2.562156483814701
 40
2.632018059635769
 40
2.697632170908807
 40
2.758983004673755
 40
2.816058934719331
 40
2.868855358768799
 40
2.917379455381523
 40
2.961657891390823
 40
3.001748842830695
 40
3.037759864766866
 40
3.069872766529199
 40
3.098375063964101
 40
3.123694093126985
 40
3.146424564086408
 40
3.167335445589004
 40
3.187342464356845
 40
3.207442575967037
 40
3.228624100525613
 40
3.251779552288907
 40
3.277646644348731
 40
3.30678784879988
 40
3.339602255545994
 40
3.376355290573089
 40
3.41721285909449
 40
3.462271745709466
 40
3.51158315946213
 40
3.565169414003959
 40
3.623035037498447
 40
3.68517384208261
 40
3.75157325899539
 40
3.822216907901929
 40
3.89708606431539
 40
3.976160458384555
 40
4.05941867855979
 40
4.146838348623106
 40
4.238396179785589
 40
4.334067958050182
 40
4.433828501679777
 40
4.537651608340957
 40
4.645510002431615
 40
4.757375287812765
 40
4.87321790814897
 40
4.993007115398637
 40
5.116710946127781
 40
5.24429620491262
 40
5.375728453946992
 40
5.510972007961186
 40
5.649989933619793
 40
5.792744052658153
 40
5.939194948117442
 40
6.089301973136008
 40
6.243023261843502
 40
6.400315741982452
 40
6.56113514894888
 40
6.725436041000132
 40
6.893171815425096
 40
7.06429472551098
 40
7.238755898172841
 40
7.416505352138017
 40
7.59749201659911
 40
7.781663750266184
 40
7.96896736076295
 40
8.15934862432281
 40
8.352752305749776
 40
8.549122178616463
 40
8.748401045677095
 40
8.950530759478154
 40
9.155452243152846
 40
9.363105511388524
 40
9.573429691558339
 40
9.786363045010182
 40
10.00184298850741
 40
10.2198061158166
 40
10.44018821943863
 40
10.66292431247967
 40
10.8879486506592
 40
11.11519475445232
 40
11.34459543136377
 40
11.57608279833126
 40
11.80958830425533
 40
12.04504275265353
 40
12.28237632443587
 40
12.52151860079904
 40
12.76239858623633
 40
13.00494473166012
 40
13.24908495763393
 40
13.49474667771027
 40
13.74185682187109
 40
13.99034186006685
 40
14.24012782585033
 40
14.49114034010133
 40
14.74330463483775
 40
14.99654557710905
 40
15.25078769296727
 40
15.50595519151129
 40
15.76197198899943
 40
16.01876173302564
 40
16.27624782675426
 40
16.53435345320846
 40
16.79300159960701
 40
17.05211508174449
 40
17.31161656840937
 40
17.57142860583488
 40
17.83147364217715
 40
18.09167405201527
 40
18.35195216086782
 40
18.61223026972037
 40
18.87243067955849
 40
19.13247571590076
 40
19.39228775332627
 40
19.65178923999115
 40
19.91090272212863
 40
20.16955086852719
 40
20.42765649498138
 40
20.68514258871
 40
20.94193233273621
 40
21.19794913022435
 40
21.45311662876837
 40
21.70735874462659
 40
21.96059968689789
 40
22.21276398163431
 40
22.46377649588531
 40
22.71356246166879
 40
22.96204749986454
 40
23.20915764402537
 40
23.45481936410171
 40
23.69895959007551
 40
23.94150573549931
 40
24.18238572093659
 40
24.42152799729977
 40
24.65886156908211
 40
24.8943160174803
 40
25.12782152340437
 40
25.35930889037185
 40
25.58870956728331
 40
25.81595567107642
 40
26.04098000925595
 40
26.26371610229699
 40
26.48409820591901
 40
26.70206133322821
 40
26.91754127672543
 40
27.13047463017728
 40
27.34079881034708
 40
27.54845207858276
 40
27.75337356225745
 40
27.95550327605851
 40
28.15478214311914
 40
28.35115201598583
 40
28.5445556974128
 40
28.73493696097266
 40
28.92224057146943
 40
29.10641230513651
 40
29.28739896959761
 40
29.46514842356278
 40
29.63960959622464
 40
29.81073250631053
 40
29.97846828073549
 40
30.14276917278675
 40
30.30358857975317
 40
30.46088105989213
 40
30.61460234859962
 40
30.76470937361819
 40
30.91116026907748
 40
31.05391438811584
 40
31.19293231377444
 40
31.32817586778863
 40
31.459608116823
 40
31.58719337560784
 40
31.71089720633698
 40
31.83068641358665
 40
31.94652903392285
 40
32.058394319304
 40
32.16625271339466
 40
32.27007582005583
 40
32.36983636368542
 40
32.46550814195001
 40
32.55706597311249
 40
32.6444856431758
 40
32.72774386335103
 40
32.80681825742019
 40
32.88168741383365
 40
32.95233106274018
 40
33.01873047965295
 40
33.08086928423711
 40
33.13873490773159
 40
33.19232116227342
 40
33.24163257602607
 40
33.28669146264104
 40
33.32754903116244
 40
33.36430206618953
 40
33.39711647293564
 40
33.42625767738678
 40
33.4521247694466
 40
33.47528022120989
 40
33.49646174576846
 40
33.51656185737865
 40
33.53656887614649
 40
33.55747975764909
 40
33.58021022860852
 40
33.60552925777142
 40
33.63403155520632
 40
33.66614445696867
 40
33.70215547890485
 40
33.74224643034473
 40
33.78652486635404
 40
33.83504896296677
 40
33.88784538701626
 40
33.94492131706184
 40
34.0062721508268
 40
34.07188626209985
 40
34.14174783792093
 40
34.21583851097396
 40
34.29413825730682
 40
34.37662585773549
 40
34.46327910747559
 40
34.55407488579883
 40
34.64898915213416
 40
34.74799690722915
 40
34.85107214120157
 40
34.95818778032056
 40
35.06931563850782
 40
35.18442637619672
 40
35.30348946732472
 40
35.42647317425061
 40
35.55334452991308
 40
35.68406932636105
 40
35.81861210875712
 40
35.95693617400732
 40
36.09900357325867
 40
36.24477511760583
 40
36.39421038644731
 40
36.54726773802178
 40
36.66901946444104
 40
36.66901946444104
 40
36.66901946444104
 40
36.66901946444104
 10
62.21718861323895
 20
21.12057573943654
 30
0.0
 10
62.29671392103866
 20
21.1368225803864
 30
0.0
 10
62.47611187394934
 20
21.1739887898763
 30
0.0
 10
62.75268104543285
 20
21.23317926574024
 30
0.0
 10
63.04441704925718
 20
21.29797890439264
 30
0.0
 10
63.32847903660128
 20
21.36349529447231
 30
0.0
 10
63.60476952726118
 20
21.4297022012103
 30
0.0
 10
63.87319221910435
 20
21.49657225749858
 30
0.0
 10
64.13365195817666
 20
21.56407682784235
 30
0.0
 10
64.38605458986855
 20
21.63218582170035
 30
0.0
 10
64.63030681455099
 20
21.7008674719206
 30
0.0
 10
64.86631601300907
 20
21.77008806286828
 30
0.0
 10
65.09399004785224
 20
21.83981159790861
 30
0.0
 10
65.31323703702857
 20
21.90999939079226
 30
0.0
 10
65.5239650991498
 20
21.98060956209853
 30
0.0
 10
65.72608207131977
 20
22.05159641660627
 30
0.0
 10
65.9194952032258
 20
22.12290967125242
 30
0.0
 10
66.10411083603482
 20
22.19449349523044
 30
0.0
 10
66.27983408250158
 20
22.26628531421026
 30
0.0
 10
66.44656853720745
 20
22.33821431883431
 30
0.0
 10
66.60421606556157
 20
22.4101996045844
 30
0.0
 10
66.75267675081979
 20
22.48214785617225
 30
0.0
 10
66.89184912540647
 20
22.5539504781406
 30
0.0
 10
67.02163088398585
 20
22.62548006941658
 30
0.0
 10
67.14192038138437
 20
22.69658615500035
 30
0.0
 10
67.2526193710262
 20
22.76709014340455
 30
0.0
 10
67.35363765056947
 20
22.83677961159825
 30
0.0
 10
67.44490055280245
 20
22.90540229279046
 30
0.0
 10
67.52636052298637
 20
22.97266065388627
 30
0.0
 10
67.59801425649927
 20
23.03820883052246
 30
0.0
 10
67.65992678121258
 20
23.1016550699325
 30
0.0
 10
67.71226295361181
 20
23.1625747220966
 30
0.0
 10
67.75532428150497
 20
23.22054080496051
 30
0.0
 10
67.7895838770503
 20
23.27517990756466
 30
0.0
 10
67.81570459596016
 20
23.32625794410038
 30
0.0
 10
67.83451773236585
 20
23.37378943911032
 30
0.0
 10
67.84693946342942
 20
23.41814443367654
 30
0.0
 10
67.85381972176903
 20
23.46010617629023
 30
0.0
 10
67.8557552336131
 20
23.50082948192236
 30
0.0
 10
67.85293478131713
 20
23.54168186348867
 30
0.0
 10
67.84508657384482
 20
23.58400801565464
 30
0.0
 10
67.831553474545
 20
23.62890281951665
 30
0.0
 10
67.81145955850117
 20
23.67707289410252
 30
0.0
 10
67.78389478109013
 20
23.72881611168638
 30
0.0
 10
67.74805473813991
 20
23.78409246325251
 30
0.0
 10
67.70331150983272
 20
23.8426344066426
 30
0.0
 10
67.64922579270502
 20
23.9040530804106
 30
0.0
 10
67.58552413909685
 20
23.96791857531858
 30
0.0
 10
67.51206279115719
 20
24.03381064273632
 30
0.0
 10
67.42879149131274
 20
24.10134542010443
 30
0.0
 10
67.3357233030895
 20
24.17018599983854
 30
0.0
 10
67.23291188964778
 20
24.24004353790057
 30
0.0
 10
67.12043551665239
 20
24.31067356511827
 30
0.0
 10
66.99838633553556
 20
24.38187035503658
 30
0.0
 10
66.8668635022491
 20
24.45346091913067
 30
0.0
 10
66.72596894547338
 20
24.52529939830644
 30
0.0
 10
66.57580490021452
 20
24.59726216098867
 30
0.0
 10
66.41647258378204
 20
24.6692436767045
 30
0.0
 10
66.24807159075705
 20
24.74115311912025
 30
0.0
 10
66.07069972649562
 20
24.81291160660445
 30
0.0
 10
65.88445309711166
 20
24.88444997781668
 30
0.0
 10
65.68942633988537
 20
24.95570700573868
 30
0.0
 10
65.48571292153953
 20
25.02662796585461
 30
0.0
 10
65.27340546007942
 20
25.09716348801854
 30
0.0
 10
65.05259604404206
 20
25.16726863455657
 30
0.0
 10
64.823376534491
 20
25.23690215840649
 30
0.0
 10
64.58583884228416
 20
25.30602590457253
 30
0.0
 10
64.34007517754777
 20
25.37460432571849
 30
0.0
 10
64.08617827090622
 20
25.44260408891038
 30
0.0
 10
63.8242415675236
 20
25.50999375531061
 30
0.0
 10
63.55435939579208
 20
25.57674351842631
 30
0.0
 10
63.27662711287032
 20
25.64282498954859
 30
0.0
 10
62.99114122935454
 20
25.70821102131428
 30
0.0
 10
62.69799951531901
 20
25.7728755622126
 30
0.0
 10
62.39730108981782
 20
25.83679353628046
 30
0.0
 10
62.08914649575651
 20
25.89994074338043
 30
0.0
 10
61.773637761861
 20
25.96229377635851
 30
0.0
 10
61.45087845326863
 20
26.02382995210443
 30
0.0
 10
61.1209737120969
 20
26.08452725408248
 30
0.0
 10
60.78403028917138
 20
26.14436428435844
 30
0.0
 10
60.4401565679557
 20
26.20332022355448
 30
0.0
 10
60.089462581587
 20
26.26137479738251
 30
0.0
 10
59.7320600238054
 20
26.31850824867266
 30
0.0
 10
59.36806225447005
 20
26.37470131405841
 30
0.0
 10
58.99758430025555
 20
26.42993520452061
 30
0.0
 10
58.6207428510577
 20
26.48419158921448
 30
0.0
 10
58.23765625255989
 20
26.53745258207042
 30
0.0
 10
57.84844449536173
 20
26.58970073072229
 30
0.0
 10
57.45322920101695
 20
26.6409190074343
 30
0.0
 10
57.05213360528707
 20
26.69109080170225
 30
0.0
 10
56.64528253887921
 20
26.74019991429046
 30
0.0
 10
56.23280240590294
 20
26.78823055249647
 30
0.0
 10
55.81482116025769
 20
26.83516732643435
 30
0.0
 10
55.39146828012942
 20
26.88099524622263
 30
0.0
 10
54.96287474076622
 20
26.92569971990057
 30
0.0
 10
54.52917298567151
 20
26.96926655200847
 30
0.0
 10
54.09049689635073
 20
27.01168194269045
 30
0.0
 10
53.6469817607199
 20
27.05293248725835
 30
0.0
 10
53.198764240286
 20
27.09300517616445
 30
0.0
 10
52.74598233618896
 20
27.13188739526428
 30
0.0
 10
52.2887753541893
 20
27.16956692638647
 30
0.0
 10
51.82728386867963
 20
27.20603194810852
 30
0.0
 10
51.36164968578807
 20
27.24127103672223
 30
0.0
 10
50.89201580563601
 20
27.27527316735237
 30
0.0
 10
50.41852638380875
 20
27.30802771518226
 30
0.0
 10
49.94132669209445
 20
27.33952445680067
 30
0.0
 10
49.46056307853543
 20
27.36975357157841
 30
0.0
 10
48.9763829268427
 20
27.39870564312665
 30
0.0
 10
48.48893461521176
 20
27.42637166075853
 30
0.0
 10
47.99836747458222
 20
27.45274302098429
 30
0.0
 10
47.50483174637635
 20
27.47781152899248
 30
0.0
 10
47.00847853975189
 20
27.50156940012463
 30
0.0
 10
46.50945978840333
 20
27.52400926131637
 30
0.0
 10
46.00792820694029
 20
27.54512415252035
 30
0.0
 10
45.50403724687477
 20
27.56490752806227
 30
0.0
 10
44.99794105224625
 20
27.58335325796649
 30
0.0
 10
44.48979441490884
 20
27.60045562920838
 30
0.0
 10
43.97975272951022
 20
27.61620934692034
 30
0.0
 10
43.46797194818511
 20
27.63060953550227
 30
0.0
 10
42.95460853498891
 20
27.64365173968432
 30
0.0
 10
42.43981942009647
 20
27.65533192549461
 30
0.0
 10
41.9237619537853
 20
27.66564648114232
 30
0.0
 10
41.40659386023118
 20
27.67459221783034
 30
0.0
 10
40.88847319113439
 20
27.68216637046832
 30
0.0
 10
40.36955827919907
 20
27.68836659829655
 30
0.0
 10
39.8500076914893
 20
27.69319098541033
 30
0.0
 10
39.32998018268087
 20
27.69663804121652
 30
0.0
 10
38.80963464822959
 20
27.69870670075048
 30
0.0
 10
38.28913007747975
 20
27.6993963249444
 30
0.0
 10
37.76862550673015
 20
27.69870670075048
 30
0.0
 10
37.24827997227887
 20
27.69663804121652
 30
0.0
 10
36.72825246347021
 20
27.69319098541033
 30
0.0
 10
36.20870187576044
 20
27.68836659829655
 30
0.0
 10
35.68978696382511
 20
27.68216637046832
 30
0.0
 10
35.17166629472833
 20
27.67459221783034
 30
0.0
 10
34.65449820117443
 20
27.66564648114232
 30
0.0
 10
34.13844073486327
 20
27.65533192549461
 30
0.0
 10
33.6236516199706
 20
27.64365173968432
 30
0.0
 10
33.1102882067744
 20
27.63060953550227
 30
0.0
 10
32.59850742544928
 20
27.61620934692034
 30
0.0
 10
32.08846574005067
 20
27.60045562920838
 30
0.0
 10
31.58031910271326
 20
27.58335325796649
 30
0.0
 10
31.07422290808473
 20
27.56490752806227
 30
0.0
 10
30.57033194801921
 20
27.54512415252035
 30
0.0
 10
30.06880036655617
 20
27.52400926131637
 30
0.0
 10
29.56978161520761
 20
27.50156940012463
 30
0.0
 10
29.07342840858315
 20
27.47781152899248
 30
0.0
 10
28.57989268037728
 20
27.45274302098429
 30
0.0
 10
28.08932553974774
 20
27.42637166075853
 30
0.0
 10
27.6018772281168
 20
27.39870564312665
 30
0.0
 10
27.11769707642408
 20
27.36975357157841
 30
0.0
 10
26.63693346286506
 20
27.33952445680067
 30
0.0
 10
26.15973377115075
 20
27.30802771518226
 30
0.0
 10
25.68624434932373
 20
27.27527316735237
 30
0.0
 10
25.21661046917144
 20
27.24127103672223
 30
0.0
 10
24.75097628627988
 20
27.20603194810852
 30
0.0
 10
24.28948480077043
 20
27.16956692638647
 30
0.0
 10
23.83227781877077
 20
27.13188739526428
 30
0.0
 10
23.37949591467351
 20
27.09300517616445
 30
0.0
 10
22.93127839423961
 20
27.05293248725835
 30
0.0
 10
22.48776325860878
 20
27.01168194269045
 30
0.0
 10
22.049087169288
 20
26.96926655200847
 30
0.0
 10
21.61538541419351
 20
26.92569971990057
 30
0.0
 10
21.18679187483009
 20
26.88099524622263
 30
0.0
 10
20.76343899470181
 20
26.83516732643435
 30
0.0
 10
20.34545774905656
 20
26.78823055249647
 30
0.0
 10
19.93297761608052
 20
26.74019991429046
 30
0.0
 10
19.52612654967244
 20
26.69109080170225
 30
0.0
 10
19.12503095394255
 20
26.6409190074343
 30
0.0
 10
18.72981565959777
 20
26.58970073072229
 30
0.0
 10
18.34060390239962
 20
26.53745258207042
 30
0.0
 10
17.95751730390203
 20
26.48419158921448
 30
0.0
 10
17.58067585470395
 20
26.42993520452061
 30
0.0
 10
17.21019790048969
 20
26.37470131405841
 30
0.0
 10
16.8462001311541
 20
26.31850824867266
 30
0.0
 10
16.48879757337273
 20
26.26137479738251
 30
0.0
 10
16.13810358700381
 20
26.20332022355448
 30
0.0
 10
15.79422986578835
 20
26.14436428435844
 30
0.0
 10
15.45728644286261
 20
26.08452725408248
 30
0.0
 10
15.12738170169088
 20
26.02382995210443
 30
0.0
 10
14.80462239309874
 20
25.96229377635851
 30
0.0
 10
14.48911365920322
 20
25.89994074338043
 30
0.0
 10
14.18095906514192
 20
25.83679353628046
 30
0.0
 10
13.88026063964049
 20
25.7728755622126
 30
0.0
 10
13.58711892560519
 20
25.70821102131428
 30
0.0
 10
13.30163304208919
 20
25.64282498954859
 30
0.0
 10
13.02390075916743
 20
25.57674351842631
 30
0.0
 10
12.75401858743613
 20
25.50999375530834
 30
0.0
 10
12.49208188405329
 20
25.44260408891038
 30
0.0
 10
12.23818497741196
 20
25.37460432571849
 30
0.0
 10
11.99242131267534
 20
25.30602590457253
 30
0.0
 10
11.7548836204685
 20
25.23690215840649
 30
0.0
 10
11.52566411091744
 20
25.16726863455657
 30
0.0
 10
11.30485469488032
 20
25.09716348801854
 30
0.0
 10
11.0925472334202
 20
25.02662796585461
 30
0.0
 10
10.88883381507413
 20
24.95570700573868
 30
0.0
 10
10.69380705784807
 20
24.88444997781668
 30
0.0
 10
10.50756042846411
 20
24.81291160660445
 30
0.0
 10
10.33018856420246
 20
24.74115311912025
 30
0.0
 10
10.16178757117747
 20
24.6692436767045
 30
0.0
 10
10.00245525474521
 20
24.59726216098867
 30
0.0
 10
9.85229120948635
 20
24.52529939830644
 30
0.0
 10
9.71139665271063
 20
24.45346091913067
 30
0.0
 10
9.579873819424176
 20
24.38187035503658
 30
0.0
 10
9.45782463830734
 20
24.31067356511827
 30
0.0
 10
9.345348265311952
 20
24.24004353789829
 30
0.0
 10
9.242536851870238
 20
24.17018599983854
 30
0.0
 10
9.149468663646996
 20
24.10134542010443
 30
0.0
 10
9.066197363802768
 20
24.03381064273632
 30
0.0
 10
8.992736015863112
 20
23.96791857531858
 30
0.0
 10
8.929034362254935
 20
23.9040530804106
 30
0.0
 10
8.874948645127017
 20
23.8426344066426
 30
0.0
 10
8.830205416819819
 20
23.78409246325251
 30
0.0
 10
8.794365373869606
 20
23.72881611168638
 30
0.0
 10
8.76680059645879
 20
23.67707289410252
 30
0.0
 10
8.746706680414956
 20
23.62890281951665
 30
0.0
 10
8.733173581115135
 20
23.58400801565464
 30
0.0
 10
8.725325373642828
 20
23.54168186348867
 30
0.0
 10
8.722504921346864
 20
23.50082948192236
 30
0.0
 10
8.724440433191159
 20
23.46010617629023
 30
0.0
 10
8.731320691530538
 20
23.41814443367654
 30
0.0
 10
8.743742422594107
 20
23.37378943911032
 30
0.0
 10
8.762555558999804
 20
23.32625794410038
 30
0.0
 10
8.788676277909655
 20
23.27517990756466
 30
0.0
 10
8.822935873454991
 20
23.22054080496051
 30
0.0
 10
8.865997201348375
 20
23.1625747220966
 30
0.0
 10
8.918333373747611
 20
23.1016550699325
 30
0.0
 10
8.980245898460918
 20
23.03820883052246
 30
0.0
 10
9.051899631973821
 20
22.97266065388627
 30
0.0
 10
9.133359602157736
 20
22.90540229279046
 30
0.0
 10
9.22462250439072
 20
22.83677961159643
 30
0.0
 10
9.325640783933988
 20
22.76709014340455
 30
0.0
 10
9.436339773576048
 20
22.69658615500035
 30
0.0
 10
9.556629270974337
 20
22.62548006941658
 30
0.0
 10
9.686411029553721
 20
22.5539504781406
 30
0.0
 10
9.8255834041404
 20
22.48214785617225
 30
0.0
 10
9.974044089398614
 20
22.41019960458258
 30
0.0
 10
10.13169161775296
 20
22.33821431883431
 30
0.0
 10
10.29842607245883
 20
22.26628531420844
 30
0.0
 10
10.47414931892559
 20
22.19449349523044
 30
0.0
 10
10.65876495173462
 20
22.12290967125242
 30
0.0
 10
10.85217808364065
 20
22.05159641660627
 30
0.0
 10
11.05429505581084
 20
21.98060956209626
 30
0.0
 10
11.26502311793207
 20
21.90999939079226
 30
0.0
 10
11.4842701071084
 20
21.83981159790861
 30
0.0
 10
11.71194414195157
 20
21.77008806286828
 30
0.0
 10
11.94795334040965
 20
21.70086747191832
 30
0.0
 10
12.19220556509209
 20
21.63218582170035
 30
0.0
 10
12.44460819678421
 20
21.56407682784235
 30
0.0
 10
12.70506793585652
 20
21.49657225749858
 30
0.0
 10
12.97349062769946
 20
21.4297022012103
 30
0.0
 10
13.24978111835936
 20
21.36349529447231
 30
0.0
 10
13.53384310570369
 20
21.29797890439037
 30
0.0
 10
13.82557910952802
 20
21.23317926574024
 30
0.0
 10
14.10214828101995
 20
21.17398878987448
 30
0.0
 10
14.28154623393904
 20
21.13682258038231
 30
0.0
 10
14.36107154174784
 20
21.12057573943063
 30
0.0
  0
ELLIPSE
  5
25B0
330
1F
100
AcDbEntity
  8
0
100
AcDbEllipse
 10
38.28913040048839
 20
18.66106787640653
 30
0.0
 11
-23.9280585358252
 21
0.0
 31
0.0
210
0.0
220
0.0
230
1.0
 40
0.151999
 41
0.0
 42
6.283185307179586
  0
SPLINE
  5
25B1
330
1F
100
AcDbEntity
  8
0
370
     0
100
AcDbSpline
210
0.0
220
0.0
230
1.0
 70
     9
 71
     3
 72
   367
 73
   363
 74
     0
 42
0.000000001
 43
0.0
 40
0.0
 40
0.0
 40
0.0
 40
0.0
 40
0.0121227549368233
 40
0.0251401829812129
 40
0.0398617410769223
 40
0.0569522828123523
 40
0.0769101867974132
 40
0.1000778763327726
 40
0.1266707015496071
 40
0.1568106279240762
 40
0.1905563080692405
 40
0.2279262595770797
 40
0.2689150933497937
 40
0.3135041105901102
 40
0.3616678418114304
 40
0.4133778714444877
 40
0.4686049401825439
 40
0.5273199998856701
 40
0.5894946563763817
 40
0.6551012705286776
 40
0.7241128805275452
 40
0.7965030405737444
 40
0.8722456299200794
 40
0.951314661339085
 40
1.033684103595879
 40
1.119327724198799
 40
1.208218954116509
 40
1.300330773750992
 40
1.395635618315936
 40
1.494105300337745
 40
1.595710946946103
 40
1.700422949763676
 40
1.808210925432379
 40
1.91904368506717
 40
2.032889211176183
 40
2.149714640813124
 40
2.269486253928239
 40
2.392169466056756
 40
2.517728824630241
 40
2.646128008319122
 40
2.777329828917192
 40
2.911296235363735
 40
3.04798831956922
 40
3.187366323768277
 40
3.329389649171525
 40
3.474016865726928
 40
3.621205722833701
 40
3.77091316087846
 40
3.923095323485063
 40
4.077707570387739
 40
4.234704490851947
 40
4.394039917579645
 40
4.555666941045821
 40
4.71953792422149
 40
4.885604517645313
 40
5.053817674811691
 40
5.224127667847958
 40
5.396484103457197
 40
5.570835939106523
 40
5.747131499443308
 40
5.925318492924091
 40
6.105344028642804
 40
6.287154633346407
 40
6.47069626862737
 40
6.655914348283462
 40
6.84275375583617
 40
7.03115886219979
 40
7.221073543493852
 40
7.412441198991971
 40
7.605204769200666
 40
7.799306754061981
 40
7.994689231273997
 40
8.191293874723561
 40
8.389061973025722
 40
8.587934448164464
 40
8.787851874229476
 40
8.988754496243752
 40
9.190582249076883
 40
9.39327477643896
 40
9.596771449949998
 40
9.801011388279887
 40
10.00593347635381
 40
10.21147638461813
 40
10.41757858836172
 40
10.62417838708775
 40
10.83121392393088
 40
11.03862320511485
 40
11.24634411944543
 40
11.45431445783372
 40
11.66247193284469
 40
11.87075419826605
 40
12.0790988686922
 40
12.28744353911835
 40
12.49572580453972
 40
12.70388327955069
 40
12.91185361793897
 40
13.11957453226955
 40
13.32698381345352
 40
13.53401935029666
 40
13.74061914902269
 40
13.94672135276628
 40
14.15226426103059
 40
14.35718634910451
 40
14.5614262874344
 40
14.76492296094544
 40
14.96761548830752
 40
15.16944324114065
 40
15.37034586315493
 40
15.57026328921994
 40
15.76913576435868
 40
15.96690386266084
 40
16.16350850611041
 40
16.35889098332242
 40
16.55299296818374
 40
16.74575653839243
 40
16.93712419389055
 40
17.12703887518461
 40
17.31544398154823
 40
17.50228338910093
 40
17.68750146875702
 40
17.87104310403798
 40
18.05285370874158
 40
18.2328792444603
 40
18.41106623794108
 40
18.58736179827786
 40
18.76171363392718
 40
18.93407006953641
 40
19.10438006257268
 40
19.27259321973906
 40
19.43865981316288
 40
19.60253079633855
 40
19.76415781980472
 40
19.92349324653242
 40
20.08049016699662
 40
20.23510241389929
 40
20.38728457650589
 40
20.53699201455065
 40
20.68418087165742
 40
20.82880808821282
 40
20.97083141361607
 40
21.11020941781513
 40
21.24690150202061
 40
21.38086790846715
 40
21.51206972906522
 40
21.6404689127541
 40
21.76602827132758
 40
21.8887114834561
 40
22.00848309657121
 40
22.12530852620815
 40
22.23915405231716
 40
22.34998681195196
 40
22.45777478762066
 40
22.56248679043823
 40
22.66409243704658
 40
22.7625621190684
 40
22.85786696363334
 40
22.94997878326782
 40
23.03887001318553
 40
23.12451363378845
 40
23.20688307604524
 40
23.28595210746425
 40
23.36169469681058
 40
23.43408485685678
 40
23.50309646685565
 40
23.56870308100795
 40
23.63087773749866
 40
23.68959279720179
 40
23.74481986593985
 40
23.79652989557291
 40
23.84469362679422
 40
23.88928264403454
 40
23.93027147780726
 40
23.9676414293151
 40
24.00138710946026
 40
24.03152703583473
 40
24.05811986105157
 40
24.08128755058693
 40
24.10124545457199
 40
24.11833599630743
 40
24.13305755440313
 40
24.14607498244752
 40
24.15819773738435
 40
24.17032049232117
 40
24.18333792036556
 40
24.19805947846126
 40
24.21515002019669
 40
24.23510792418175
 40
24.25827561371711
 40
24.28486843893394
 40
24.3150083653084
 40
24.34875404545356
 40
24.3861239969614
 40
24.42711283073411
 40
24.47170184797443
 40
24.51986557919574
 40
24.5715756088288
 40
24.62680267756685
 40
24.68551773726998
 40
24.74769239376068
 40
24.81329900791297
 40
24.88231061791184
 40
24.95470077795803
 40
25.03044336730436
 40
25.10951239872337
 40
25.19188184098016
 40
25.27752546158307
 40
25.36641669150078
 40
25.45852851113526
 40
25.5538333557002
 40
25.652303037722
 40
25.75390868433036
 40
25.85862068714792
 40
25.96640866281662
 40
26.07724142245141
 40
26.19108694856042
 40
26.30791237819735
 40
26.42768399131246
 40
26.55036720344098
 40
26.67592656201446
 40
26.80432574570333
 40
26.9355275663014
 40
27.06949397274794
 40
27.20618605695342
 40
27.34556406115247
 40
27.48758738655571
 40
27.63221460311111
 40
27.77940346021787
 40
27.92911089826263
 40
28.08129306086923
 40
28.2359053077719
 40
28.3929022282361
 40
28.5522376549638
 40
28.71386467842997
 40
28.87773566160563
 40
29.04380225502945
 40
29.21201541219583
 40
29.38232540523209
 40
29.55468184084132
 40
29.72903367649064
 40
29.90532923682742
 40
30.0835162303082
 40
30.26354176602691
 40
30.4453523707305
 40
30.62889400601146
 40
30.81411208566755
 40
31.00095149322026
 40
31.18935659958387
 40
31.37927128087793
 40
31.57063893637604
 40
31.76340250658473
 40
31.95750449144604
 40
32.15288696865805
 40
32.34949161210761
 40
32.54725971040977
 40
32.7461321855485
 40
32.94604961161351
 40
33.14695223362778
 40
33.3487799864609
 40
33.55147251382298
 40
33.75496918733401
 40
33.9592091256639
 40
34.16413121373782
 40
34.36967412200213
 40
34.57577632574571
 40
34.78237612447175
 40
34.98941166131488
 40
35.19682094249885
 40
35.40454185682943
 40
35.6125121952177
 40
35.82066967022867
 40
36.02895193565003
 40
36.23729660607618
 40
36.44564127650232
 40
36.65392354192368
 40
36.86208101693465
 40
37.07005135532293
 40
37.27777226965351
 40
37.48518155083748
 40
37.69221708768061
 40
37.89881688640664
 40
38.10491909015023
 40
38.31046199841455
 40
38.51538408648847
 40
38.71962402481836
 40
38.9231206983294
 40
39.12581322569147
 40
39.32764097852461
 40
39.52854360053888
 40
39.7284610266039
 40
39.92733350174264
 40
40.1251016000448
 40
40.32170624349436
 40
40.51708872070638
 40
40.71119070556769
 40
40.90395427577639
 40
41.0953219312745
 40
41.28523661256857
 40
41.47364171893219
 40
41.6604811264849
 40
41.84569920614099
 40
42.02924084142195
 40
42.21105144612556
 40
42.39107698184427
 40
42.56926397532506
 40
42.74555953566184
 40
42.91991137131117
 40
43.0922678069204
 40
43.26257779995667
 40
43.43079095712306
 40
43.59685755054688
 40
43.76072853372255
 40
43.92235555718873
 40
44.08169098391643
 40
44.23868790438064
 40
44.39330015128332
 40
44.54548231388993
 40
44.69518975193469
 40
44.84237860904147
 40
44.98700582559687
 40
45.12902915100013
 40
45.26840715519919
 40
45.40509923940468
 40
45.53906564585123
 40
45.6702674664493
 40
45.79866665013819
 40
45.92422600871168
 40
46.0469092208402
 40
46.16668083395532
 40
46.28350626359227
 40
46.39735178970128
 40
46.50818454933608
 40
46.61597252500479
 40
46.72068452782236
 40
46.82229017443073
 40
46.92075985645254
 40
47.01606470101749
 40
47.10817652065198
 40
47.19706775056969
 40
47.28271137117262
 40
47.36508081342942
 40
47.44414984484844
 40
47.51989243419478
 40
47.59228259424098
 40
47.66129420423986
 40
47.72690081839216
 40
47.78907547488287
 40
47.847790534586
 40
47.90301760332407
 40
47.95472763295714
 40
48.00289136417846
 40
48.04748038141879
 40
48.08846921519151
 40
48.12583916669936
 40
48.15958484684453
 40
48.18972477321901
 40
48.21631759843586
 40
48.23948528797122
 40
48.25944319195629
 40
48.27653373369173
 40
48.29125529178744
 40
48.30427271983184
 40
48.31639547476869
 40
48.31639547476869
 40
48.31639547476869
 40
48.31639547476869
 10
14.705278933684
 20
18.49992314314265
 30
0.0
 10
14.705278933684
 20
18.49184130651853
 30
0.0
 10
14.7062635942391
 20
18.47506629364049
 30
0.0
 10
14.7108751198639
 20
18.44884076375835
 30
0.0
 10
14.71927365166335
 20
18.4200989640705
 30
0.0
 10
14.7323333411132
 20
18.38809133797046
 30
0.0
 10
14.75097870608102
 20
18.35247785414428
 30
0.0
 10
14.7760371848317
 20
18.31327041654428
 30
0.0
 10
14.80816151049613
 20
18.27071965153224
 30
0.0
 10
14.84781346706587
 20
18.22520677358458
 30
0.0
 10
14.89528507363776
 20
18.17715959674039
 30
0.0
 10
14.95073479806934
 20
18.12699911370843
 30
0.0
 10
15.01422453179613
 20
18.07511085347429
 30
0.0
 10
15.08575071979841
 20
18.02183324987451
 30
0.0
 10
15.16526792455194
 20
17.96745602135858
 30
0.0
 10
15.25270547132778
 20
17.9122236908244
 30
0.0
 10
15.347978623759
 20
17.85634122655453
 30
0.0
 10
15.45099577180464
 20
17.79998013679242
 30
0.0
 10
15.56166285939458
 20
17.7432841942642
 30
0.0
 10
15.67988597050045
 20
17.68637445326258
 30
0.0
 10
15.8055727225085
 20
17.62935347871835
 30
0.0
 10
15.93863290837136
 20
17.57230882969052
 30
0.0
 10
16.07897868010083
 20
17.51531588947419
 30
0.0
 10
16.22652446356643
 20
17.45844014666827
 30
0.0
 10
16.38118672568681
 20
17.4017390261266
 30
0.0
 10
16.54288366971765
 20
17.34526335629253
 30
0.0
 10
16.7115349048786
 20
17.28905854536251
 30
0.0
 10
16.88706111762623
 20
17.23316552531842
 30
0.0
 10
17.06938375991241
 20
17.17762151134421
 30
0.0
 10
17.258424762264
 20
17.12246061437654
 30
0.0
 10
17.45410627494563
 20
17.06771433673439
 30
0.0
 10
17.65635043772546
 20
17.01341197446445
 30
0.0
 10
17.86507917720816
 20
16.95958094507032
 30
0.0
 10
18.08021402987402
 20
16.90624705537639
 30
0.0
 10
18.30167598858931
 20
16.85343472118448
 30
0.0
 10
18.52938537025308
 20
16.80116714801452
 30
0.0
 10
18.76326170230278
 20
16.74946648025443
 30
0.0
 10
19.00322362594057
 20
16.69835392463629
 30
0.0
 10
19.24918881412988
 20
16.64784985272045
 30
0.0
 10
19.50107390260224
 20
16.59797388617663
 30
0.0
 10
19.75879443231339
 20
16.54874496791818
 30
0.0
 10
20.02226480197102
 20
16.50018142155441
 30
0.0
 10
20.29139822942239
 20
16.45230100115041
 30
0.0
 10
20.56610672084822
 20
16.40512093295056
 30
0.0
 10
20.84630104683357
 20
16.35865795039454
 30
0.0
 10
21.13189072451975
 20
16.31292832352856
 30
0.0
 10
21.42278400513056
 20
16.26794788369043
 30
0.0
 10
21.71888786626756
 20
16.2237320442624
 30
0.0
 10
22.02010800844347
 20
16.18029581807023
 30
0.0
 10
22.32634885538756
 20
16.1376538319706
 30
0.0
 10
22.63751355772503
 20
16.09582033904244
 30
0.0
 10
22.95350399967198
 20
16.0548092287564
 30
0.0
 10
23.27422080844122
 20
16.01463403541639
 30
0.0
 10
23.59956336608685
 20
15.9753079451426
 30
0.0
 10
23.92942982354749
 20
15.93684380158229
 30
0.0
 10
24.26371711668322
 20
15.89925411057229
 30
0.0
 10
24.60232098411826
 20
15.86255104388429
 30
0.0
 10
24.94513598672644
 20
15.82674644218023
 30
0.0
 10
25.29205552861505
 20
15.79185181731837
 30
0.0
 10
25.64297187947933
 20
15.75787835407446
 30
0.0
 10
25.9977761982093
 20
15.7248369113946
 30
0.0
 10
26.35635855765191
 20
15.69273802321423
 30
0.0
 10
26.71860797042997
 20
15.66159189895652
 30
0.0
 10
27.08441241574088
 20
15.63140842370021
 30
0.0
 10
27.45365886705623
 20
15.60219715812637
 30
0.0
 10
27.82623332065806
 20
15.57396733823825
 30
0.0
 10
28.20202082494781
 20
15.54672787491845
 30
0.0
 10
28.5809055104735
 20
15.52048735332856
 30
0.0
 10
28.96277062062201
 20
15.49525403221251
 30
0.0
 10
29.3474985429341
 20
15.47103584309261
 30
0.0
 10
29.73497084099223
 20
15.44784038940052
 30
0.0
 10
30.12506828684674
 20
15.42567494555633
 30
0.0
 10
30.51767089394049
 20
15.40454645599639
 30
0.0
 10
30.91265795049823
 20
15.38446153421237
 30
0.0
 10
31.30990805334637
 20
15.36542646173448
 30
0.0
 10
31.70929914213685
 20
15.34744718715647
 30
0.0
 10
32.11070853394132
 20
15.33052932514429
 30
0.0
 10
32.51401295819257
 20
15.3146781554784
 30
0.0
 10
32.91908859194338
 20
15.29989862211423
 30
0.0
 10
33.32581109542413
 20
15.2861953322923
 30
0.0
 10
33.73405564786732
 20
15.27357255566458
 30
0.0
 10
34.14369698358497
 20
15.26203422348235
 30
0.0
 10
34.55460942826973
 20
15.25158392783633
 30
0.0
 10
34.96666693550425
 20
15.24222492093859
 30
0.0
 10
35.37974312345411
 20
15.23396011447048
 30
0.0
 10
35.79371131172685
 20
15.22679207899646
 30
0.0
 10
36.20844455837711
 20
15.22072304342246
 30
0.0
 10
36.62381569703759
 20
15.21575489454253
 30
0.0
 10
37.03969737415947
 20
15.21188917664231
 30
0.0
 10
37.45596208634198
 20
15.20912709117247
 30
0.0
 10
37.87248221773213
 20
15.20746949649638
 30
0.0
 10
38.28913007747998
 20
15.20691690770045
 30
0.0
 10
38.70577793722784
 20
15.20746949649638
 30
0.0
 10
39.12229806861798
 20
15.20912709117247
 30
0.0
 10
39.53856278080049
 20
15.21188917664231
 30
0.0
 10
39.95444445792261
 20
15.21575489454253
 30
0.0
 10
40.36981559658308
 20
15.22072304342246
 30
0.0
 10
40.78454884323311
 20
15.22679207899646
 30
0.0
 10
41.19851703150586
 20
15.23396011447048
 30
0.0
 10
41.61159321945571
 20
15.24222492093859
 30
0.0
 10
42.02365072669024
 20
15.25158392783633
 30
0.0
 10
42.43456317137522
 20
15.26203422348235
 30
0.0
 10
42.84420450709287
 20
15.27357255566458
 30
0.0
 10
43.25244905953606
 20
15.2861953322923
 30
0.0
 10
43.65917156301659
 20
15.29989862211423
 30
0.0
 10
44.06424719676762
 20
15.3146781554784
 30
0.0
 10
44.46755162101864
 20
15.33052932514429
 30
0.0
 10
44.86896101282311
 20
15.34744718715647
 30
0.0
 10
45.26835210161381
 20
15.36542646173448
 30
0.0
 10
45.66560220446196
 20
15.38446153421237
 30
0.0
 10
46.06058926101947
 20
15.40454645599639
 30
0.0
 10
46.45319186811345
 20
15.42567494555633
 30
0.0
 10
46.84328931396796
 20
15.44784038940052
 30
0.0
 10
47.23076161202586
 20
15.47103584309261
 30
0.0
 10
47.61548953433795
 20
15.49525403221251
 30
0.0
 10
47.99735464448669
 20
15.52048735332856
 30
0.0
 10
48.37623933001215
 20
15.54672787491845
 30
0.0
 10
48.7520268343019
 20
15.57396733823825
 30
0.0
 10
49.12460128790396
 20
15.60219715812637
 30
0.0
 10
49.49384773921931
 20
15.63140842370021
 30
0.0
 10
49.85965218452999
 20
15.66159189895652
 30
0.0
 10
50.22190159730805
 20
15.69273802321423
 30
0.0
 10
50.58048395675065
 20
15.7248369113946
 30
0.0
 10
50.93528827548063
 20
15.75787835407446
 30
0.0
 10
51.28620462634491
 20
15.79185181731837
 30
0.0
 10
51.63312416823352
 20
15.82674644218023
 30
0.0
 10
51.9759391708417
 20
15.86255104388429
 30
0.0
 10
52.31454303827674
 20
15.89925411057229
 30
0.0
 10
52.64883033141247
 20
15.93684380158229
 30
0.0
 10
52.97869678887311
 20
15.9753079451426
 30
0.0
 10
53.30403934651873
 20
16.01463403541639
 30
0.0
 10
53.62475615528798
 20
16.0548092287564
 30
0.0
 10
53.94074659723493
 20
16.09582033904244
 30
0.0
 10
54.2519112995724
 20
16.1376538319706
 30
0.0
 10
54.55815214651649
 20
16.18029581807023
 30
0.0
 10
54.85937228869217
 20
16.2237320442624
 30
0.0
 10
55.1554761498294
 20
16.26794788369043
 30
0.0
 10
55.44636943044021
 20
16.31292832352856
 30
0.0
 10
55.73195910812639
 20
16.35865795039454
 30
0.0
 10
56.01215343411174
 20
16.40512093295056
 30
0.0
 10
56.28686192553756
 20
16.45230100115041
 30
0.0
 10
56.55599535298894
 20
16.50018142155441
 30
0.0
 10
56.81946572264634
 20
16.54874496791818
 30
0.0
 10
57.07718625235749
 20
16.59797388617663
 30
0.0
 10
57.32907134083008
 20
16.64784985272045
 30
0.0
 10
57.57503652901939
 20
16.69835392463629
 30
0.0
 10
57.81499845265718
 20
16.74946648025443
 30
0.0
 10
58.04887478470688
 20
16.80116714801452
 30
0.0
 10
58.27658416637065
 20
16.85343472118448
 30
0.0
 10
58.49804612508593
 20
16.90624705537639
 30
0.0
 10
58.7131809777518
 20
16.95958094507032
 30
0.0
 10
58.9219097172345
 20
17.01341197446445
 30
0.0
 10
59.12415388001433
 20
17.06771433673439
 30
0.0
 10
59.31983539269596
 20
17.12246061437654
 30
0.0
 10
59.50887639504755
 20
17.17762151134421
 30
0.0
 10
59.69119903733373
 20
17.23316552531842
 30
0.0
 10
59.86672525008136
 20
17.28905854536251
 30
0.0
 10
60.03537648524231
 20
17.34526335629253
 30
0.0
 10
60.19707342927315
 20
17.4017390261266
 30
0.0
 10
60.3517356913933
 20
17.45844014666827
 30
0.0
 10
60.49928147485913
 20
17.51531588947419
 30
0.0
 10
60.63962724658838
 20
17.57230882969052
 30
0.0
 10
60.77268743245124
 20
17.62935347871835
 30
0.0
 10
60.89837418445951
 20
17.68637445326258
 30
0.0
 10
61.01659729556515
 20
17.7432841942642
 30
0.0
 10
61.12726438315532
 20
17.79998013679242
 30
0.0
 10
61.23028153120096
 20
17.85634122655453
 30
0.0
 10
61.32555468363195
 20
17.9122236908244
 30
0.0
 10
61.41299223040802
 20
17.9674560213604
 30
0.0
 10
61.49250943516155
 20
18.02183324986633
 30
0.0
 10
61.56403562316383
 20
18.07511085349839
 30
0.0
 10
61.62752535689062
 20
18.12699911362839
 30
0.0
 10
61.6829750813222
 20
18.1771595970005
 30
0.0
 10
61.73044668789409
 20
18.22520677275467
 30
0.0
 10
61.77009864446383
 20
18.27071965413658
 30
0.0
 10
61.80222297012826
 20
18.31327040851662
 30
0.0
 10
61.82728144887894
 20
18.35247787846053
 30
0.0
 10
61.84592681384676
 20
18.38809126537232
 30
0.0
 10
61.85898650329661
 20
18.42009917994634
 30
0.0
 10
61.86738503509606
 20
18.44884011096034
 30
0.0
 10
61.87199656072086
 20
18.47506836747258
 30
0.0
 10
61.87345603081145
 20
18.49992314314265
 30
0.0
 10
61.87199656072086
 20
18.52477791881225
 30
0.0
 10
61.86738503509606
 20
18.5510061753245
 30
0.0
 10
61.85898650329661
 20
18.57974710633849
 30
0.0
 10
61.84592681384676
 20
18.61175502091024
 30
0.0
 10
61.82728144887894
 20
18.64736840782431
 30
0.0
 10
61.80222297012826
 20
18.68657587776639
 30
0.0
 10
61.77009864446383
 20
18.72912663214826
 30
0.0
 10
61.73044668789409
 20
18.77463951352835
 30
0.0
 10
61.6829750813222
 20
18.82268668928433
 30
0.0
 10
61.62752535689062
 20
18.87284717265644
 30
0.0
 10
61.56403562316383
 20
18.92473543278462
 30
0.0
 10
61.49250943516155
 20
18.97801303641851
 30
0.0
 10
61.41299223040802
 20
19.03239026492444
 30
0.0
 10
61.32555468363218
 20
19.08762259546044
 30
0.0
 10
61.23028153120096
 20
19.14350505973031
 30
0.0
 10
61.12726438315555
 20
19.19986614949054
 30
0.0
 10
61.01659729556538
 20
19.25656209202058
 30
0.0
 10
60.89837418445974
 20
19.31347183302038
 30
0.0
 10
60.77268743245146
 20
19.37049280756643
 30
0.0
 10
60.6396272465886
 20
19.42753745659426
 30
0.0
 10
60.49928147485936
 20
19.48453039681059
 30
0.0
 10
60.35173569139353
 20
19.54140613961423
 30
0.0
 10
60.19707342927337
 20
19.59810726015863
 30
0.0
 10
60.03537648524254
 20
19.65458292999043
 30
0.0
 10
59.86672525008159
 20
19.71078774092226
 30
0.0
 10
59.69119903733396
 20
19.76668076096636
 30
0.0
 10
59.50887639504778
 20
19.82222477494057
 30
0.0
 10
59.31983539269619
 20
19.87738567190824
 30
0.0
 10
59.12415388001456
 20
19.93213194955039
 30
0.0
 10
58.92190971723473
 20
19.98643431182033
 30
0.0
 10
58.71318097775203
 20
20.04026534121446
 30
0.0
 10
58.49804612508616
 20
20.09359923090839
 30
0.0
 10
58.27658416637088
 20
20.14641156509848
 30
0.0
 10
58.04887478470711
 20
20.19867913827026
 30
0.0
 10
57.81499845265741
 20
20.25037980602853
 30
0.0
 10
57.57503652901961
 20
20.30149236164849
 30
0.0
 10
57.32907134083031
 20
20.35199643356433
 30
0.0
 10
57.07718625235795
 20
20.40187240010861
 30
0.0
 10
56.8194657226468
 20
20.4511013183666
 30
0.0
 10
56.5559953529894
 20
20.49966486472855
 30
0.0
 10
56.28686192553779
 20
20.54754528513437
 30
0.0
 10
56.01215343411219
 20
20.59472535333467
 30
0.0
 10
55.73195910812684
 20
20.64118833588842
 30
0.0
 10
55.44636943044067
 20
20.68691796275667
 30
0.0
 10
55.15547614982985
 20
20.73189840259435
 30
0.0
 10
54.85937228869263
 20
20.77611424202238
 30
0.0
 10
54.55815214651672
 20
20.81955046821455
 30
0.0
 10
54.25191129957263
 20
20.86219245431463
 30
0.0
 10
53.94074659723539
 20
20.90402594724234
 30
0.0
 10
53.62475615528844
 20
20.94503705752837
 30
0.0
 10
53.30403934651896
 20
20.98521225086657
 30
0.0
 10
52.97869678887356
 20
21.02453834114264
 30
0.0
 10
52.64883033141292
 20
21.06300248470249
 30
0.0
 10
52.31454303827719
 20
21.10059217571249
 30
0.0
 10
51.97593917084215
 20
21.13729524240049
 30
0.0
 10
51.63312416823398
 20
21.17309984410455
 30
0.0
 10
51.28620462634537
 20
21.20799446896641
 30
0.0
 10
50.93528827548108
 20
21.2419679322085
 30
0.0
 10
50.58048395675111
 20
21.27500937489064
 30
0.0
 10
50.2219015973085
 20
21.30710826306828
 30
0.0
 10
49.85965218453045
 20
21.33825438732826
 30
0.0
 10
49.49384773921976
 20
21.36843786258456
 30
0.0
 10
49.12460128790441
 20
21.39764912815841
 30
0.0
 10
48.75202683430236
 20
21.42587894804652
 30
0.0
 10
48.37623933001261
 20
21.45311841136633
 30
0.0
 10
47.99735464448715
 20
21.47935893295668
 30
0.0
 10
47.61548953433841
 20
21.50459225407227
 30
0.0
 10
47.23076161202654
 20
21.52881044319262
 30
0.0
 10
46.84328931396841
 20
21.55200589688244
 30
0.0
 10
46.4531918681139
 20
21.57417134072845
 30
0.0
 10
46.06058926101993
 20
21.59529983028657
 30
0.0
 10
45.66560220446242
 20
21.61538475207241
 30
0.0
 10
45.26835210161427
 20
21.63441982454848
 30
0.0
 10
44.86896101282379
 20
21.65239909912649
 30
0.0
 10
44.4675516210191
 20
21.66931696114049
 30
0.0
 10
44.06424719676808
 20
21.68516813080638
 30
0.0
 10
43.65917156301727
 20
21.69994766417054
 30
0.0
 10
43.25244905953652
 20
21.71365095399248
 30
0.0
 10
42.84420450709332
 20
21.72627373062065
 30
0.0
 10
42.43456317137567
 20
21.73781206280243
 30
0.0
 10
42.02365072669092
 20
21.74826235844845
 30
0.0
 10
41.6115932194564
 20
21.75762136534664
 30
0.0
 10
41.19851703150654
 20
21.76588617181248
 30
0.0
 10
40.78454884323379
 20
21.77305420728832
 30
0.0
 10
40.36981559658354
 20
21.77912324286232
 30
0.0
 10
39.95444445792306
 20
21.78409139174224
 30
0.0
 10
39.53856278080117
 20
21.78795710964247
 30
0.0
 10
39.12229806861866
 20
21.79071919511049
 30
0.0
 10
38.70577793722852
 20
21.7923767897884
 30
0.0
 10
38.28913007748066
 20
21.79292937858251
 30
0.0
 10
37.87248221773281
 20
21.7923767897884
 30
0.0
 10
37.45596208634267
 20
21.79071919511049
 30
0.0
 10
37.03969737416016
 20
21.78795710964247
 30
0.0
 10
36.62381569703827
 20
21.78409139174224
 30
0.0
 10
36.20844455837779
 20
21.77912324286232
 30
0.0
 10
35.79371131172753
 20
21.77305420728832
 30
0.0
 10
35.37974312345479
 20
21.76588617181248
 30
0.0
 10
34.96666693550493
 20
21.75762136534664
 30
0.0
 10
34.55460942827041
 20
21.74826235844845
 30
0.0
 10
34.14369698358566
 20
21.73781206280243
 30
0.0
 10
33.734055647868
 20
21.72627373062065
 30
0.0
 10
33.32581109542481
 20
21.71365095399248
 30
0.0
 10
32.91908859194406
 20
21.69994766417054
 30
0.0
 10
32.51401295819325
 20
21.68516813080638
 30
0.0
 10
32.11070853394223
 20
21.66931696114049
 30
0.0
 10
31.70929914213754
 20
21.65239909912649
 30
0.0
 10
31.30990805334705
 20
21.63441982454848
 30
0.0
 10
30.91265795049891
 20
21.61538475207241
 30
0.0
 10
30.51767089394117
 20
21.59529983028657
 30
0.0
 10
30.12506828684742
 20
21.57417134072845
 30
0.0
 10
29.73497084099291
 20
21.55200589688244
 30
0.0
 10
29.34749854293478
 20
21.52881044319262
 30
0.0
 10
28.96277062062269
 20
21.50459225407227
 30
0.0
 10
28.58090551047418
 20
21.47935893295668
 30
0.0
 10
28.20202082494871
 20
21.45311841136633
 30
0.0
 10
27.82623332065874
 20
21.42587894804652
 30
0.0
 10
27.45365886705691
 20
21.39764912815841
 30
0.0
 10
27.08441241574156
 20
21.36843786258456
 30
0.0
 10
26.71860797043065
 20
21.33825438732826
 30
0.0
 10
26.35635855765259
 20
21.30710826306828
 30
0.0
 10
25.99777619820999
 20
21.27500937489064
 30
0.0
 10
25.64297187948001
 20
21.2419679322085
 30
0.0
 10
25.29205552861573
 20
21.20799446896641
 30
0.0
 10
24.94513598672712
 20
21.17309984410455
 30
0.0
 10
24.60232098411894
 20
21.13729524240049
 30
0.0
 10
24.2637171166839
 20
21.10059217571249
 30
0.0
 10
23.92942982354817
 20
21.06300248470249
 30
0.0
 10
23.59956336608753
 20
21.02453834114264
 30
0.0
 10
23.27422080844191
 20
20.98521225086839
 30
0.0
 10
22.95350399967243
 20
20.94503705752837
 30
0.0
 10
22.63751355772571
 20
20.90402594724234
 30
0.0
 10
22.32634885538824
 20
20.86219245431463
 30
0.0
 10
22.02010800844415
 20
20.81955046821455
 30
0.0
 10
21.71888786626824
 20
20.77611424202238
 30
0.0
 10
21.42278400513102
 20
20.73189840259435
 30
0.0
 10
21.1318907245202
 20
20.68691796275667
 30
0.0
 10
20.84630104683403
 20
20.64118833588842
 30
0.0
 10
20.56610672084868
 20
20.59472535333467
 30
0.0
 10
20.29139822942308
 20
20.54754528513437
 30
0.0
 10
20.02226480197147
 20
20.49966486472855
 30
0.0
 10
19.75879443231407
 20
20.4511013183666
 30
0.0
 10
19.50107390260292
 20
20.40187240010861
 30
0.0
 10
19.24918881413056
 20
20.35199643356433
 30
0.0
 10
19.00322362594103
 20
20.30149236164849
 30
0.0
 10
18.76326170230324
 20
20.25037980602853
 30
0.0
 10
18.52938537025376
 20
20.19867913827026
 30
0.0
 10
18.30167598858976
 20
20.1464115651003
 30
0.0
 10
18.08021402987448
 20
20.09359923090839
 30
0.0
 10
17.86507917720861
 20
20.04026534121446
 30
0.0
 10
17.65635043772592
 20
19.98643431182033
 30
0.0
 10
17.45410627494608
 20
19.93213194955039
 30
0.0
 10
17.25842476226445
 20
19.87738567190824
 30
0.0
 10
17.06938375991286
 20
19.82222477494057
 30
0.0
 10
16.88706111762668
 20
19.76668076096636
 30
0.0
 10
16.71153490487883
 20
19.71078774092226
 30
0.0
 10
16.5428836697181
 20
19.65458292999043
 30
0.0
 10
16.38118672568704
 20
19.59810726015863
 30
0.0
 10
16.22652446356689
 20
19.54140613961423
 30
0.0
 10
16.07897868010106
 20
19.48453039681059
 30
0.0
 10
15.93863290837181
 20
19.42753745659426
 30
0.0
 10
15.80557272250895
 20
19.37049280756643
 30
0.0
 10
15.67988597050067
 20
19.31347183302038
 30
0.0
 10
15.56166285939504
 20
19.25656209202058
 30
0.0
 10
15.45099577180487
 20
19.19986614949054
 30
0.0
 10
15.34797862375923
 20
19.14350505973031
 30
0.0
 10
15.25270547132801
 20
19.08762259546044
 30
0.0
 10
15.16526792455216
 20
19.03239026492626
 30
0.0
 10
15.08575071979864
 20
18.97801303641032
 30
0.0
 10
15.01422453179635
 20
18.92473543281054
 30
0.0
 10
14.95073479806957
 20
18.87284717257641
 30
0.0
 10
14.89528507363776
 20
18.82268668954445
 30
0.0
 10
14.84781346706587
 20
18.77463951270025
 30
0.0
 10
14.80816151049613
 20
18.7291266347526
 30
0.0
 10
14.77603718483193
 20
18.68657586973828
 30
0.0
 10
14.75097870608102
 20
18.64736843214056
 30
0.0
 10
14.7323333411132
 20
18.61175494831438
 30
0.0
 10
14.71927365166335
 20
18.57974732221434
 30
0.0
 10
14.7108751198639
 20
18.55100552252649
 30
0.0
 10
14.7062635942391
 20
18.52477999264435
 30
0.0
 10
14.705278933684
 20
18.50800497976631
 30
0.0
 10
14.705278933684
 20
18.49992314314265
 30
0.0
  0
LINE
  5
25B2
330
1F
100
AcDbEntity
  8
0
100
AcDbLine
 10
8.37905640048849
 20
23.69851987640656
 30
0.0
 11
8.37905640048849
 21
31.31221187640646
 31
0.0
  0
LINE
  5
25B3
330
1F
100
AcDbEntity
  8
0
100
AcDbLine
 10
68.19920240048852
 20
23.69851987640656
 30
0.0
 11
68.19920240048852
 21
31.31221187640646
 31
0.0
  0
LINE
  5
25B4
330
1F
100
AcDbEntity
  8
0
100
AcDbLine
 10
62.21718840048835
 20
18.66106787640653
 30
0.0
 11
62.21718840048835
 21
25.87359787640631
 31
0.0
  0
LINE
  5
25B5
330
1F
100
AcDbEntity
  8
0
100
AcDbLine
 10
14.36107240048842
 20
18.66106787640653
 30
0.0
 11
14.36107240048842
 21
25.87359787640631
 31
0.0
  0
MTEXT
  5
25B6
330
1F
100
AcDbEntity
  8
0
100
AcDbMText
 10
88.06605394058273
 20
81.39485218109432
 30
0.0
 40
4.0
 41
169.8946080541571
 71
     1
 72
     5
  1
{\fHGMaruGothicMPRO|b0|i0|c128|p50;●MPN045\P●器具サイズ：幅φ400×高さ233ｍｍ\P●全長：1306ｍｍ\P●質量：0.9ｋｇ\P●コード調整具付属\P●ランプ別売（E26）\P●適合ランプ\P　60W相当LED電球　8Wまで\P　60W相当電球型蛍光灯　12Wまで}
  7
KANJI
 73
     1
 44
1.0
1001
AcadAnnotative
1000
AnnotativeData
1002
{
1070
     1
1070
     0
1002
}
1001
ACAD
1000
ACAD_MTEXT_DEFINED_HEIGHT_BEGIN
1070
    46
1040
60.57866405312139
1000
ACAD_MTEXT_DEFINED_HEIGHT_END
  0
ENDSEC
  0
SECTION
  2
OBJECTS
  0
DICTIONARY
  5
C
330
0
100
AcDbDictionary
281
     1
  3
ACAD_COLOR
350
1DDA
  3
ACAD_DGNDEFINITIONS
350
1DDD
  3
ACAD_DWFDEFINITIONS
350
1DDC
  3
ACAD_GROUP
350
D
  3
ACAD_LAYOUT
350
1A
  3
ACAD_MATERIAL
350
1DBF
  3
ACAD_MLEADERSTYLE
350
1DCE
  3
ACAD_MLINESTYLE
350
17
  3
ACAD_PDFDEFINITIONS
350
1DDB
  3
ACAD_PLOTSETTINGS
350
19
  3
ACAD_PLOTSTYLENAME
350
E
  3
ACAD_SCALELIST
350
1DAD
  3
ACAD_TABLESTYLE
350
1DAC
  3
ACAD_VISUALSTYLE
350
2A
  3
ACDBHEADERROUNDTRIPXREC
350
25B9
  3
AcDbVariableDictionary
350
1DD2
  3
DWGPROPS
350
25BC
  0
DICTIONARY
  5
25BD
330
8
100
AcDbDictionary
280
     1
281
     1
  3
ACAD_XREC_ROUNDTRIP
360
25BE
  0
DICTIONARY
  5
1FD5
330
1FD4
100
AcDbDictionary
280
     1
281
     1
  3
ADSK_XREC_LAYER_RECONCILED
360
1FD6
  0
DICTIONARY
  5
1DDA
102
{ACAD_REACTORS
330
C
102
}
330
C
100
AcDbDictionary
281
     1
  0
DICTIONARY
  5
1DDD
102
{ACAD_REACTORS
330
C
102
}
330
C
100
AcDbDictionary
281
     1
  0
DICTIONARY
  5
1DDC
102
{ACAD_REACTORS
330
C
102
}
330
C
100
AcDbDictionary
281
     1
  0
DICTIONARY
  5
D
102
{ACAD_REACTORS
330
C
102
}
330
C
100
AcDbDictionary
281
     1
  0
DICTIONARY
  5
1A
102
{ACAD_REACTORS
330
C
102
}
330
C
100
AcDbDictionary
281
     1
  3
Layout1
350
1E
  3
Layout2
350
26
  3
Model
350
22
  0
DICTIONARY
  5
1DBF
102
{ACAD_REACTORS
330
C
102
}
330
C
100
AcDbDictionary
281
     1
  3
ByBlock
350
1DC1
  3
ByLayer
350
1DC0
  3
Global
350
1DC2
  0
DICTIONARY
  5
1DCE
102
{ACAD_REACTORS
330
C
102
}
330
C
100
AcDbDictionary
281
     1
  3
Standard
350
1DCF
  0
DICTIONARY
  5
17
102
{ACAD_REACTORS
330
C
102
}
330
C
100
AcDbDictionary
281
     1
  3
Standard
350
18
  0
DICTIONARY
  5
1DDB
102
{ACAD_REACTORS
330
C
102
}
330
C
100
AcDbDictionary
281
     1
  0
DICTIONARY
  5
19
102
{ACAD_REACTORS
330
C
102
}
330
C
100
AcDbDictionary
281
     1
  0
ACDBDICTIONARYWDFLT
  5
E
102
{ACAD_REACTORS
330
C
102
}
330
C
100
AcDbDictionary
281
     1
  3
Normal
350
F
100
AcDbDictionaryWithDefault
340
F
  0
DICTIONARY
  5
1DAD
102
{ACAD_REACTORS
330
C
102
}
330
C
100
AcDbDictionary
281
     1
  3
A0
350
1DAE
  3
B7
350
1DAF
  3
B8
350
1DB0
  3
B9
350
1DB1
  3
C0
350
1DB2
  3
C1
350
1DB3
  3
C2
350
1DB4
  3
C3
350
1DB5
  3
C4
350
1DB6
  3
C5
350
1DB7
  3
C6
350
1DB8
  3
C7
350
1DB9
  3
C8
350
1DBA
  3
C9
350
1DBB
  3
D0
350
1DBC
  3
D1
350
1DBD
  3
D2
350
1DBE
  0
DICTIONARY
  5
1DAC
102
{ACAD_REACTORS
330
C
102
}
330
C
100
AcDbDictionary
281
     1
  3
Standard
350
1DCD
  0
DICTIONARY
  5
2A
102
{ACAD_REACTORS
330
C
102
}
330
C
100
AcDbDictionary
281
     1
  3
2dWireframe
350
2F
  3
3D Hidden
350
31
  3
3dWireframe
350
30
  3
Basic
350
32
  3
Brighten
350
36
  3
ColorChange
350
3A
  3
Conceptual
350
34
  3
Dim
350
35
  3
EdgeColorOff
350
1DC7
  3
Facepattern
350
39
  3
Flat
350
2B
  3
FlatWithEdges
350
2C
  3
Gouraud
350
2D
  3
GouraudWithEdges
350
2E
  3
Hidden
350
1DC4
  3
JitterOff
350
1DC5
  3
Linepattern
350
38
  3
OverhangOff
350
1DC6
  3
Realistic
350
33
  3
Shaded
350
1DCC
  3
Shaded with edges
350
1DCB
  3
Shades of Gray
350
1DC8
  3
Sketchy
350
1DC9
  3
Thicken
350
37
  3
Wireframe
350
1DC3
  3
X-Ray
350
1DCA
  0
DICTIONARY
  5
25B9
102
{ACAD_REACTORS
330
C
102
}
330
C
100
AcDbDictionary
281
     1
  3
COLORDICT
350
25BA
  3
MATERIALDICT
350
25BB
  0
DICTIONARY
  5
1DD2
102
{ACAD_REACTORS
330
C
102
}
330
C
100
AcDbDictionary
281
     1
  3
CANNOSCALE
350
1DD3
  3
CMLEADERSTYLE
350
1DD5
  3
CTABLESTYLE
350
1DD4
  3
DIMASSOC
350
25B7
  3
HIDETEXT
350
25B8
  3
MSLTSCALE
350
1DD6
  0
XRECORD
  5
25BC
102
{ACAD_REACTORS
330
C
102
}
330
C
100
AcDbXrecord
280
     1
  1
DWGPROPS COOKIE
  2

  3

  4

  6

  7

  8
OLY19111309
  9

300
=
301
=
302
=
303
=
304
=
305
=
306
=
307
=
308
=
309
=
 40
0.0
 41
2459097.000891169
 42
2459461.092951563
  1

 90
        0
  0
XRECORD
  5
25BE
102
{ACAD_REACTORS
330
25BD
102
}
330
25BD
100
AcDbXrecord
280
     1
102
VTR_0.000_0.000_1.000_1.000_VISUALSTYLE
340
2F
102
VTR_0.000_0.000_1.000_1.000_GRIDDISPLAY
 70
     3
102
VTR_0.000_0.000_1.000_1.000_GRIDMAJOR
 70
     5
102
VTR_0.000_0.000_1.000_1.000_DEFAULTLIGHTING
280
     1
102
VTR_0.000_0.000_1.000_1.000_DEFAULTLIGHTINGTYPE
 70
     1
102
VTR_0.000_0.000_1.000_1.000_BRIGHTNESS
141
0.0
102
VTR_0.000_0.000_1.000_1.000_CONTRAST
142
0.0
  0
XRECORD
  5
1FD6
102
{ACAD_REACTORS
330
1FD5
102
}
330
1FD5
100
AcDbXrecord
280
     1
290
     1
  0
LAYOUT
  5
1E
102
{ACAD_REACTORS
330
1A
102
}
330
1A
100
AcDbPlotSettings
  1

  2
none_device
  4

  6

 40
0.0
 41
0.0
 42
0.0
 43
0.0
 44
0.0
 45
0.0
 46
0.0
 47
0.0
 48
0.0
 49
0.0
140
0.0
141
0.0
142
1.0
143
1.0
 70
   688
 72
     0
 73
     0
 74
     5
  7

 75
    16
147
1.0
148
0.0
149
0.0
100
AcDbLayout
  1
Layout1
 70
     1
 71
     1
 10
0.0
 20
0.0
 11
12.0
 21
9.0
 12
0.0
 22
0.0
 32
0.0
 14
1.000000000000000E+20
 24
1.000000000000000E+20
 34
1.000000000000000E+20
 15
-1.000000000000000E+20
 25
-1.000000000000000E+20
 35
-1.000000000000000E+20
146
0.0
 13
0.0
 23
0.0
 33
0.0
 16
1.0
 26
0.0
 36
0.0
 17
0.0
 27
1.0
 37
0.0
 76
     0
330
1B
  0
LAYOUT
  5
26
102
{ACAD_REACTORS
330
1A
102
}
330
1A
100
AcDbPlotSettings
  1

  2
none_device
  4

  6

 40
0.0
 41
0.0
 42
0.0
 43
0.0
 44
0.0
 45
0.0
 46
0.0
 47
0.0
 48
0.0
 49
0.0
140
0.0
141
0.0
142
1.0
143
1.0
 70
   688
 72
     0
 73
     0
 74
     5
  7

 75
    16
147
1.0
148
0.0
149
0.0
100
AcDbLayout
  1
Layout2
 70
     1
 71
     2
 10
0.0
 20
0.0
 11
0.0
 21
0.0
 12
0.0
 22
0.0
 32
0.0
 14
0.0
 24
0.0
 34
0.0
 15
0.0
 25
0.0
 35
0.0
146
0.0
 13
0.0
 23
0.0
 33
0.0
 16
1.0
 26
0.0
 36
0.0
 17
0.0
 27
1.0
 37
0.0
 76
     0
330
23
  0
LAYOUT
  5
22
102
{ACAD_REACTORS
330
1A
102
}
330
1A
100
AcDbPlotSettings
  1

  2
none_device
  4

  6

 40
0.0
 41
0.0
 42
0.0
 43
0.0
 44
0.0
 45
0.0
 46
0.0
 47
0.0
 48
0.0
 49
0.0
140
0.0
141
0.0
142
1.0
143
1.0
 70
  1712
 72
     0
 73
     0
 74
     0
  7

 75
     0
147
1.0
148
0.0
149
0.0
100
AcDbLayout
  1
Model
 70
     1
 71
     0
 10
0.0
 20
0.0
 11
12.0
 21
9.0
 12
0.0
 22
0.0
 32
0.0
 14
1.768894400488545
 24
15.02402690701963
 34
0.0
 15
184.4990436313044
 25
126.28081236501
 35
0.0
146
0.0
 13
0.0
 23
0.0
 33
0.0
 16
1.0
 26
0.0
 36
0.0
 17
0.0
 27
1.0
 37
0.0
 76
     0
330
1F
331
29
  0
MATERIAL
  5
1DC1
102
{ACAD_REACTORS
330
1DBF
102
}
102
{ACAD_XDICTIONARY
360
25F5
102
}
330
1DBF
100
AcDbMaterial
  1
ByBlock
  0
MATERIAL
  5
1DC0
102
{ACAD_REACTORS
330
1DBF
102
}
102
{ACAD_XDICTIONARY
360
25F3
102
}
330
1DBF
100
AcDbMaterial
  1
ByLayer
  0
MATERIAL
  5
1DC2
102
{ACAD_REACTORS
330
1DBF
102
}
102
{ACAD_XDICTIONARY
360
25F7
102
}
330
1DBF
100
AcDbMaterial
  1
Global
  0
MLEADERSTYLE
  5
1DCF
102
{ACAD_REACTORS
330
1DCE
102
}
102
{ACAD_XDICTIONARY
360
25F9
102
}
330
1DCE
100
AcDbMLeaderStyle
170
     2
171
     1
172
     0
 90
        2
 40
0.0
 41
0.0
173
     1
 91
-1056964608
340
15
 92
       -2
290
     1
 42
0.09
291
     1
 43
0.36
  3
Standard
341
0
 44
0.18
300

342
11
174
     1
178
     6
175
     1
176
     0
 93
-1056964608
 45
0.18
292
     0
297
     0
 46
0.18
343
0
 94
-1056964608
 47
1.0
 49
1.0
140
1.0
293
     1
141
0.0
294
     1
177
     0
142
1.0
295
     0
296
     0
143
0.125
1001
ACAD_MLEADERVER
1070
     2
  0
MLINESTYLE
  5
18
102
{ACAD_REACTORS
330
17
102
}
330
17
100
AcDbMlineStyle
  2
Standard
 70
     0
  3

 62
   256
 51
90.0
 52
90.0
 71
     2
 49
0.5
 62
   256
  6
BYLAYER
 49
-0.5
 62
   256
  6
BYLAYER
  0
ACDBPLACEHOLDER
  5
F
102
{ACAD_REACTORS
330
E
102
}
330
E
  0
SCALE
  5
1DAE
102
{ACAD_REACTORS
330
1DAD
102
}
330
1DAD
100
AcDbScale
 70
     0
300
1:1
140
1.0
141
1.0
290
     1
  0
SCALE
  5
1DAF
102
{ACAD_REACTORS
330
1DAD
102
}
330
1DAD
100
AcDbScale
 70
     0
300
1/128" = 1'-0"
140
0.0078125
141
12.0
290
     0
  0
SCALE
  5
1DB0
102
{ACAD_REACTORS
330
1DAD
102
}
330
1DAD
100
AcDbScale
 70
     0
300
1/64" = 1'-0"
140
0.015625
141
12.0
290
     0
  0
SCALE
  5
1DB1
102
{ACAD_REACTORS
330
1DAD
102
}
330
1DAD
100
AcDbScale
 70
     0
300
1/32" = 1'-0"
140
0.03125
141
12.0
290
     0
  0
SCALE
  5
1DB2
102
{ACAD_REACTORS
330
1DAD
102
}
330
1DAD
100
AcDbScale
 70
     0
300
1/16" = 1'-0"
140
0.0625
141
12.0
290
     0
  0
SCALE
  5
1DB3
102
{ACAD_REACTORS
330
1DAD
102
}
330
1DAD
100
AcDbScale
 70
     0
300
3/32" = 1'-0"
140
0.09375
141
12.0
290
     0
  0
SCALE
  5
1DB4
102
{ACAD_REACTORS
330
1DAD
102
}
330
1DAD
100
AcDbScale
 70
     0
300
1/8" = 1'-0"
140
0.125
141
12.0
290
     0
  0
SCALE
  5
1DB5
102
{ACAD_REACTORS
330
1DAD
102
}
330
1DAD
100
AcDbScale
 70
     0
300
3/16" = 1'-0"
140
0.1875
141
12.0
290
     0
  0
SCALE
  5
1DB6
102
{ACAD_REACTORS
330
1DAD
102
}
330
1DAD
100
AcDbScale
 70
     0
300
1/4" = 1'-0"
140
0.25
141
12.0
290
     0
  0
SCALE
  5
1DB7
102
{ACAD_REACTORS
330
1DAD
102
}
330
1DAD
100
AcDbScale
 70
     0
300
3/8" = 1'-0"
140
0.375
141
12.0
290
     0
  0
SCALE
  5
1DB8
102
{ACAD_REACTORS
330
1DAD
102
}
330
1DAD
100
AcDbScale
 70
     0
300
1/2" = 1'-0"
140
0.5
141
12.0
290
     0
  0
SCALE
  5
1DB9
102
{ACAD_REACTORS
330
1DAD
102
}
330
1DAD
100
AcDbScale
 70
     0
300
3/4" = 1'-0"
140
0.75
141
12.0
290
     0
  0
SCALE
  5
1DBA
102
{ACAD_REACTORS
330
1DAD
102
}
330
1DAD
100
AcDbScale
 70
     0
300
1" = 1'-0"
140
1.0
141
12.0
290
     0
  0
SCALE
  5
1DBB
102
{ACAD_REACTORS
330
1DAD
102
}
330
1DAD
100
AcDbScale
 70
     0
300
1-1/2" = 1'-0"
140
1.5
141
12.0
290
     0
  0
SCALE
  5
1DBC
102
{ACAD_REACTORS
330
1DAD
102
}
330
1DAD
100
AcDbScale
 70
     0
300
3" = 1'-0"
140
3.0
141
12.0
290
     0
  0
SCALE
  5
1DBD
102
{ACAD_REACTORS
330
1DAD
102
}
330
1DAD
100
AcDbScale
 70
     0
300
6" = 1'-0"
140
6.0
141
12.0
290
     0
  0
SCALE
  5
1DBE
102
{ACAD_REACTORS
330
1DAD
102
}
330
1DAD
100
AcDbScale
 70
     0
300
1'-0" = 1'-0"
140
12.0
141
12.0
290
     0
  0
TABLESTYLE
  5
1DCD
102
{ACAD_REACTORS
330
1DAC
102
}
330
1DAC
100
AcDbTableStyle
  3
Standard
 70
     0
 71
     0
 40
0.06
 41
0.06
280
     0
281
     0
  7
Standard
140
0.18
170
     2
 62
     0
 63
   257
283
     0
274
    -2
284
     1
 64
     0
275
    -2
285
     1
 65
     0
276
    -2
286
     1
 66
     0
277
    -2
287
     1
 67
     0
278
    -2
288
     1
 68
     0
279
    -2
289
     1
 69
     0
  7
Standard
140
0.25
170
     5
 62
     0
 63
   257
283
     0
274
    -2
284
     1
 64
     0
275
    -2
285
     1
 65
     0
276
    -2
286
     1
 66
     0
277
    -2
287
     1
 67
     0
278
    -2
288
     1
 68
     0
279
    -2
289
     1
 69
     0
  7
Standard
140
0.18
170
     5
 62
     0
 63
   257
283
     0
274
    -2
284
     1
 64
     0
275
    -2
285
     1
 65
     0
276
    -2
286
     1
 66
     0
277
    -2
287
     1
 67
     0
278
    -2
288
     1
 68
     0
279
    -2
289
     1
 69
     0
  0
VISUALSTYLE
  5
2F
102
{ACAD_REACTORS
330
2A
102
}
102
{ACAD_XDICTIONARY
360
25C7
102
}
330
2A
100
AcDbVisualStyle
  2
2dWireframe
 70
     4
 71
     0
 72
     2
 73
     0
 90
        0
 40
-0.6
 41
-30.0
 62
     5
 63
     7
 74
     1
 91
        4
 64
     7
 65
   257
 75
     1
175
     1
 42
1.0
 92
        0
 66
   257
 43
1.0
 76
     1
 77
     6
 78
     2
 67
     7
 79
     5
170
     0
171
     0
290
     0
174
     0
 93
        1
 44
0.0
173
     0
291
     0
 45
0.0
1001
ACAD
1000
AcDbSavedByObjectVersion
1070
     0
  0
VISUALSTYLE
  5
31
102
{ACAD_REACTORS
330
2A
102
}
102
{ACAD_XDICTIONARY
360
25CB
102
}
330
2A
100
AcDbVisualStyle
  2
3D Hidden
 70
     6
 71
     1
 72
     2
 73
     2
 90
        0
 40
-0.6
 41
-30.0
 62
     5
 63
     7
 74
     2
 91
        2
 64
     7
 65
   257
 75
     2
175
     1
 42
40.0
 92
        0
 66
   257
 43
1.0
 76
     1
 77
     6
 78
     2
 67
     7
 79
     3
170
     0
171
     0
290
     0
174
     0
 93
        1
 44
0.0
173
     0
291
     0
 45
0.0
1001
ACAD
1000
AcDbSavedByObjectVersion
1070
     0
  0
VISUALSTYLE
  5
30
102
{ACAD_REACTORS
330
2A
102
}
102
{ACAD_XDICTIONARY
360
25C9
102
}
330
2A
100
AcDbVisualStyle
  2
3dWireframe
 70
     5
 71
     0
 72
     2
 73
     0
 90
        0
 40
-0.6
 41
-30.0
 62
     5
 63
     7
 74
     1
 91
        4
 64
     7
 65
   257
 75
     1
175
     1
 42
1.0
 92
        0
 66
   257
 43
1.0
 76
     1
 77
     6
 78
     2
 67
     7
 79
     5
170
     0
171
     0
290
     0
174
     0
 93
        1
 44
0.0
173
     0
291
     0
 45
0.0
1001
ACAD
1000
AcDbSavedByObjectVersion
1070
     0
  0
VISUALSTYLE
  5
32
102
{ACAD_REACTORS
330
2A
102
}
102
{ACAD_XDICTIONARY
360
25CD
102
}
330
2A
100
AcDbVisualStyle
  2
Basic
 70
     7
 71
     1
 72
     0
 73
     1
 90
        0
 40
-0.6
 41
-30.0
 62
     5
 63
     7
 74
     0
 91
        4
 64
     7
 65
   257
 75
     1
175
     1
 42
1.0
 92
        8
 66
     7
 43
1.0
 76
     1
 77
     6
 78
     2
 67
     7
 79
     5
170
     0
171
     0
290
     0
174
     0
 93
        1
 44
0.0
173
     0
291
     1
 45
0.0
1001
ACAD
1000
AcDbSavedByObjectVersion
1070
     0
  0
VISUALSTYLE
  5
36
102
{ACAD_REACTORS
330
2A
102
}
102
{ACAD_XDICTIONARY
360
25D5
102
}
330
2A
100
AcDbVisualStyle
  2
Brighten
 70
    12
 71
     2
 72
     2
 73
     0
 90
        0
 40
-0.6
 41
-30.0
 62
     5
 63
     7
 74
     1
 91
        4
 64
     7
 65
   257
 75
     1
175
     1
 42
1.0
 92
        8
 66
     7
 43
1.0
 76
     1
 77
     6
 78
     2
 67
     7
 79
     5
170
     0
171
     0
290
     0
174
     0
 93
        1
 44
50.0
173
     0
291
     1
 45
0.0
1001
ACAD
1000
AcDbSavedByObjectVersion
1070
     0
  0
VISUALSTYLE
  5
3A
102
{ACAD_REACTORS
330
2A
102
}
102
{ACAD_XDICTIONARY
360
25DD
102
}
330
2A
100
AcDbVisualStyle
  2
ColorChange
 70
    16
 71
     2
 72
     2
 73
     3
 90
        0
 40
-0.6
 41
-30.0
 62
     5
 63
     8
 74
     1
 91
        4
 64
     7
 65
   257
 75
     1
175
     1
 42
1.0
 92
        8
 66
     8
 43
1.0
 76
     1
 77
     6
 78
     2
 67
     7
 79
     5
170
     0
171
     0
290
     0
174
     0
 93
        1
 44
0.0
173
     0
291
     1
 45
0.0
1001
ACAD
1000
AcDbSavedByObjectVersion
1070
     0
  0
VISUALSTYLE
  5
34
102
{ACAD_REACTORS
330
2A
102
}
102
{ACAD_XDICTIONARY
360
25D1
102
}
330
2A
100
AcDbVisualStyle
  2
Conceptual
 70
     9
 71
     3
 72
     2
 73
     0
 90
        0
 40
-0.6
 41
-30.0
 62
     5
 63
     7
 74
     2
 91
        2
 64
     7
 65
   257
 75
     1
175
     1
 42
40.0
 92
        8
 66
     7
 43
1.0
 76
     1
 77
     6
 78
     2
 67
     7
 79
     3
170
     0
171
     0
290
     0
174
     0
 93
        1
 44
0.0
173
     0
291
     0
 45
0.0
1001
ACAD
1000
AcDbSavedByObjectVersion
1070
     0
  0
VISUALSTYLE
  5
35
102
{ACAD_REACTORS
330
2A
102
}
102
{ACAD_XDICTIONARY
360
25D3
102
}
330
2A
100
AcDbVisualStyle
  2
Dim
 70
    11
 71
     2
 72
     2
 73
     0
 90
        0
 40
-0.6
 41
-30.0
 62
     5
 63
     7
 74
     1
 91
        4
 64
     7
 65
   257
 75
     1
175
     1
 42
1.0
 92
        8
 66
     7
 43
1.0
 76
     1
 77
     6
 78
     2
 67
     7
 79
     5
170
     0
171
     0
290
     0
174
     0
 93
        1
 44
-50.0
173
     0
291
     1
 45
0.0
1001
ACAD
1000
AcDbSavedByObjectVersion
1070
     0
  0
VISUALSTYLE
  5
1DC7
102
{ACAD_REACTORS
330
2A
102
}
102
{ACAD_XDICTIONARY
360
25E7
102
}
330
2A
100
AcDbVisualStyle
  2
EdgeColorOff
 70
    22
 71
     2
 72
     2
 73
     0
 90
        0
 40
0.6
 41
30.0
 62
     5
 63
     7
 74
     1
 91
        4
 64
     7
 65
   257
 75
     1
175
     1
 42
1.0
 92
        8
 66
     7
 43
1.0
 76
     1
 77
     6
 78
     2
 67
     7
 79
     5
170
     0
171
     0
290
     0
174
     0
 93
        1
 44
0.0
173
     0
291
     1
 45
0.0
1001
ACAD
1000
AcDbSavedByObjectVersion
1070
     0
  0
VISUALSTYLE
  5
39
102
{ACAD_REACTORS
330
2A
102
}
102
{ACAD_XDICTIONARY
360
25DB
102
}
330
2A
100
AcDbVisualStyle
  2
Facepattern
 70
    15
 71
     2
 72
     2
 73
     0
 90
        0
 40
-0.6
 41
-30.0
 62
     5
 63
     7
 74
     1
 91
        4
 64
     7
 65
   257
 75
     1
175
     1
 42
1.0
 92
        8
 66
     7
 43
1.0
 76
     1
 77
     6
 78
     2
 67
     7
 79
     5
170
     0
171
     0
290
     0
174
     0
 93
        1
 44
0.0
173
     0
291
     1
 45
0.0
1001
ACAD
1000
AcDbSavedByObjectVersion
1070
     0
  0
VISUALSTYLE
  5
2B
102
{ACAD_REACTORS
330
2A
102
}
102
{ACAD_XDICTIONARY
360
25BF
102
}
330
2A
100
AcDbVisualStyle
  2
Flat
 70
     0
 71
     2
 72
     1
 73
     1
 90
        2
 40
-0.6
 41
30.0
 62
     5
 63
     7
 74
     0
 91
        4
 64
     7
 65
   257
 75
     1
175
     1
 42
1.0
 92
        8
 66
     7
 43
1.0
 76
     1
 77
     6
 78
     2
 67
     7
 79
     5
170
     0
171
     0
290
     0
174
     0
 93
       13
 44
0.0
173
     0
291
     1
 45
0.0
1001
ACAD
1000
AcDbSavedByObjectVersion
1070
     0
  0
VISUALSTYLE
  5
2C
102
{ACAD_REACTORS
330
2A
102
}
102
{ACAD_XDICTIONARY
360
25C1
102
}
330
2A
100
AcDbVisualStyle
  2
FlatWithEdges
 70
     1
 71
     2
 72
     1
 73
     1
 90
        2
 40
-0.6
 41
30.0
 62
     5
 63
     7
 74
     1
 91
        4
 64
     7
 65
   257
 75
     1
175
     1
 42
1.0
 92
        0
 66
   257
 43
1.0
 76
     1
 77
     6
 78
     2
 67
     7
 79
     5
170
     0
171
     0
290
     0
174
     0
 93
       13
 44
0.0
173
     0
291
     1
 45
0.0
1001
ACAD
1000
AcDbSavedByObjectVersion
1070
     0
  0
VISUALSTYLE
  5
2D
102
{ACAD_REACTORS
330
2A
102
}
102
{ACAD_XDICTIONARY
360
25C3
102
}
330
2A
100
AcDbVisualStyle
  2
Gouraud
 70
     2
 71
     2
 72
     2
 73
     1
 90
        2
 40
-0.6
 41
30.0
 62
     5
 63
     7
 74
     0
 91
        4
 64
     7
 65
   257
 75
     1
175
     1
 42
1.0
 92
        0
 66
     7
 43
1.0
 76
     1
 77
     6
 78
     2
 67
     7
 79
     5
170
     0
171
     0
290
     0
174
     0
 93
       13
 44
0.0
173
     0
291
     1
 45
0.0
1001
ACAD
1000
AcDbSavedByObjectVersion
1070
     0
  0
VISUALSTYLE
  5
2E
102
{ACAD_REACTORS
330
2A
102
}
102
{ACAD_XDICTIONARY
360
25C5
102
}
330
2A
100
AcDbVisualStyle
  2
GouraudWithEdges
 70
     3
 71
     2
 72
     2
 73
     1
 90
        2
 40
-0.6
 41
30.0
 62
     5
 63
     7
 74
     1
 91
        4
 64
     7
 65
   257
 75
     1
175
     1
 42
1.0
 92
        0
 66
   257
 43
1.0
 76
     1
 77
     6
 78
     2
 67
     7
 79
     5
170
     0
171
     0
290
     0
174
     0
 93
       13
 44
0.0
173
     0
291
     1
 45
0.0
1001
ACAD
1000
AcDbSavedByObjectVersion
1070
     0
  0
VISUALSTYLE
  5
1DC4
102
{ACAD_REACTORS
330
2A
102
}
102
{ACAD_XDICTIONARY
360
25E1
102
}
330
2A
100
AcDbVisualStyle
  2
Hidden
 70
     6
 71
     1
 72
     2
 73
     2
 90
        0
 40
0.6
 41
30.0
 62
     5
 63
     7
 74
     2
 91
        2
 64
     7
 65
   257
 75
     2
175
     1
 42
40.0
 92
        0
 66
   257
 43
1.0
 76
     1
 77
     6
 78
     2
 67
     7
 79
     3
170
     0
171
     0
290
     0
174
     0
 93
        1
 44
0.0
173
     0
291
     0
 45
0.0
1001
ACAD
1000
AcDbSavedByObjectVersion
1070
     0
  0
VISUALSTYLE
  5
1DC5
102
{ACAD_REACTORS
330
2A
102
}
102
{ACAD_XDICTIONARY
360
25E3
102
}
330
2A
100
AcDbVisualStyle
  2
JitterOff
 70
    20
 71
     2
 72
     2
 73
     0
 90
        0
 40
0.6
 41
30.0
 62
     5
 63
     7
 74
     1
 91
        4
 64
     7
 65
   257
 75
     1
175
     1
 42
1.0
 92
       10
 66
     7
 43
1.0
 76
     1
 77
     6
 78
     2
 67
     7
 79
     5
170
     0
171
     0
290
     0
174
     0
 93
        1
 44
0.0
173
     0
291
     1
 45
0.0
1001
ACAD
1000
AcDbSavedByObjectVersion
1070
     0
  0
VISUALSTYLE
  5
38
102
{ACAD_REACTORS
330
2A
102
}
102
{ACAD_XDICTIONARY
360
25D9
102
}
330
2A
100
AcDbVisualStyle
  2
Linepattern
 70
    14
 71
     2
 72
     2
 73
     0
 90
        0
 40
-0.6
 41
-30.0
 62
     5
 63
     7
 74
     1
 91
        4
 64
     7
 65
   257
 75
     7
175
     7
 42
1.0
 92
        8
 66
     7
 43
1.0
 76
     1
 77
     6
 78
     2
 67
     7
 79
     5
170
     0
171
     0
290
     0
174
     0
 93
        1
 44
0.0
173
     0
291
     1
 45
0.0
1001
ACAD
1000
AcDbSavedByObjectVersion
1070
     0
  0
VISUALSTYLE
  5
1DC6
102
{ACAD_REACTORS
330
2A
102
}
102
{ACAD_XDICTIONARY
360
25E5
102
}
330
2A
100
AcDbVisualStyle
  2
OverhangOff
 70
    21
 71
     2
 72
     2
 73
     0
 90
        0
 40
0.6
 41
30.0
 62
     5
 63
     7
 74
     1
 91
        4
 64
     7
 65
   257
 75
     1
175
     1
 42
1.0
 92
        9
 66
     7
 43
1.0
 76
     1
 77
     6
 78
     2
 67
     7
 79
     5
170
     0
171
     0
290
     0
174
     0
 93
        1
 44
0.0
173
     0
291
     1
 45
0.0
1001
ACAD
1000
AcDbSavedByObjectVersion
1070
     0
  0
VISUALSTYLE
  5
33
102
{ACAD_REACTORS
330
2A
102
}
102
{ACAD_XDICTIONARY
360
25CF
102
}
330
2A
100
AcDbVisualStyle
  2
Realistic
 70
     8
 71
     2
 72
     2
 73
     0
 90
        0
 40
-0.6
 41
-30.0
 62
     5
 63
     7
 74
     1
 91
        0
 64
     7
 65
   257
 75
     1
175
     1
 42
1.0
 92
        8
 66
     8
 43
1.0
 76
     1
 77
     6
 78
     2
 67
     7
 79
     5
170
     0
171
     0
290
     0
174
     0
 93
       13
 44
0.0
173
     0
291
     0
 45
0.0
1001
ACAD
1000
AcDbSavedByObjectVersion
1070
     0
  0
VISUALSTYLE
  5
1DCC
102
{ACAD_REACTORS
330
2A
102
}
102
{ACAD_XDICTIONARY
360
25F1
102
}
330
2A
100
AcDbVisualStyle
  2
Shaded
 70
    27
 71
     2
 72
     2
 73
     1
 90
        2
 40
0.6
 41
30.0
 62
     5
 63
     7
 74
     0
 91
        4
 64
     7
 65
   257
 75
     1
175
     1
 42
1.0
 92
        8
 66
   257
 43
1.0
 76
     1
 77
     6
 78
     2
 67
   251
 79
     3
170
     0
171
     0
290
     0
174
     0
 93
        5
 44
0.0
173
     0
291
     0
 45
0.0
1001
ACAD
1000
AcDbSavedByObjectVersion
1070
     0
  0
VISUALSTYLE
  5
1DCB
102
{ACAD_REACTORS
330
2A
102
}
102
{ACAD_XDICTIONARY
360
25EF
102
}
330
2A
100
AcDbVisualStyle
  2
Shaded with edges
 70
    26
 71
     2
 72
     2
 73
     1
 90
        2
 40
0.6
 41
30.0
 62
     5
 63
     7
 74
     1
 91
       10
 64
     7
 65
   257
 75
     2
175
     1
 42
1.0
 92
        8
 66
   257
 43
1.0
 76
     1
 77
     6
 78
     2
 67
     7
 79
     3
170
     0
171
     0
290
     0
174
     0
 93
        5
 44
0.0
173
     0
291
     0
 45
0.0
1001
ACAD
1000
AcDbSavedByObjectVersion
1070
     0
  0
VISUALSTYLE
  5
1DC8
102
{ACAD_REACTORS
330
2A
102
}
102
{ACAD_XDICTIONARY
360
25E9
102
}
330
2A
100
AcDbVisualStyle
  2
Shades of Gray
 70
    23
 71
     2
 72
     2
 73
     3
 90
        0
 40
0.6
 41
30.0
 62
     5
 63
     7
 74
     2
 91
        2
 64
     7
 65
     7
 75
     1
175
     1
 42
40.0
 92
        8
 66
     7
 43
1.0
 76
     1
 77
     6
 78
     2
 67
     7
 79
     3
170
     0
171
     0
290
     0
174
     0
 93
        1
 44
0.0
173
     0
291
     0
 45
0.0
1001
ACAD
1000
AcDbSavedByObjectVersion
1070
     0
  0
VISUALSTYLE
  5
1DC9
102
{ACAD_REACTORS
330
2A
102
}
102
{ACAD_XDICTIONARY
360
25EB
102
}
330
2A
100
AcDbVisualStyle
  2
Sketchy
 70
    24
 71
     1
 72
     2
 73
     2
 90
        0
 40
0.6
 41
30.0
 62
     5
 63
     7
 74
     2
 91
        2
 64
     7
 65
     7
 75
     1
175
     1
 42
40.0
 92
       11
 66
     7
 43
1.0
 76
     1
 77
     6
 78
     2
 67
     7
 79
     6
170
     0
171
     0
290
     0
174
     0
 93
        1
 44
0.0
173
     0
291
     0
 45
0.0
1001
ACAD
1000
AcDbSavedByObjectVersion
1070
     0
  0
VISUALSTYLE
  5
37
102
{ACAD_REACTORS
330
2A
102
}
102
{ACAD_XDICTIONARY
360
25D7
102
}
330
2A
100
AcDbVisualStyle
  2
Thicken
 70
    13
 71
     2
 72
     2
 73
     0
 90
        0
 40
-0.6
 41
-30.0
 62
     5
 63
     7
 74
     1
 91
        4
 64
     7
 65
   257
 75
     1
175
     1
 42
1.0
 92
       12
 66
     7
 43
1.0
 76
     1
 77
     6
 78
     2
 67
     7
 79
     5
170
     0
171
     0
290
     0
174
     0
 93
        1
 44
0.0
173
     0
291
     1
 45
0.0
1001
ACAD
1000
AcDbSavedByObjectVersion
1070
     0
  0
VISUALSTYLE
  5
1DC3
102
{ACAD_REACTORS
330
2A
102
}
102
{ACAD_XDICTIONARY
360
25DF
102
}
330
2A
100
AcDbVisualStyle
  2
Wireframe
 70
     5
 71
     0
 72
     2
 73
     0
 90
        0
 40
0.6
 41
30.0
 62
     5
 63
     7
 74
     1
 91
        4
 64
     7
 65
   257
 75
     1
175
     1
 42
1.0
 92
        0
 66
   257
 43
1.0
 76
     1
 77
     6
 78
     2
 67
     7
 79
     5
170
     0
171
     0
290
     0
174
     0
 93
        1
 44
0.0
173
     0
291
     0
 45
0.0
1001
ACAD
1000
AcDbSavedByObjectVersion
1070
     0
  0
VISUALSTYLE
  5
1DCA
102
{ACAD_REACTORS
330
2A
102
}
102
{ACAD_XDICTIONARY
360
25ED
102
}
330
2A
100
AcDbVisualStyle
  2
X-Ray
 70
    25
 71
     2
 72
     2
 73
     1
 90
        1
 40
0.5
 41
30.0
 62
     5
 63
     7
 74
     1
 91
        0
 64
     7
 65
   257
 75
     1
175
     1
 42
1.0
 92
        8
 66
     7
 43
1.0
 76
     1
 77
     6
 78
     2
 67
     7
 79
     3
170
     0
171
     0
290
     0
174
     0
 93
       13
 44
0.0
173
     0
291
     0
 45
0.0
1001
ACAD
1000
AcDbSavedByObjectVersion
1070
     0
  0
XRECORD
  5
25BA
102
{ACAD_REACTORS
330
25B9
102
}
330
25B9
100
AcDbXrecord
280
     1
340
1DDA
  0
XRECORD
  5
25BB
102
{ACAD_REACTORS
330
25B9
102
}
330
25B9
100
AcDbXrecord
280
     1
340
1DBF
  0
DICTIONARYVAR
  5
1DD3
102
{ACAD_REACTORS
330
1DD2
102
}
330
1DD2
100
DictionaryVariables
280
     0
  1
1:1
  0
DICTIONARYVAR
  5
1DD5
102
{ACAD_REACTORS
330
1DD2
102
}
330
1DD2
100
DictionaryVariables
280
     0
  1
Standard
  0
DICTIONARYVAR
  5
1DD4
102
{ACAD_REACTORS
330
1DD2
102
}
330
1DD2
100
DictionaryVariables
280
     0
  1
Standard
  0
DICTIONARYVAR
  5
25B7
102
{ACAD_REACTORS
330
1DD2
102
}
330
1DD2
100
DictionaryVariables
280
     0
  1
2
  0
DICTIONARYVAR
  5
25B8
102
{ACAD_REACTORS
330
1DD2
102
}
330
1DD2
100
DictionaryVariables
280
     0
  1
1
  0
DICTIONARYVAR
  5
1DD6
102
{ACAD_REACTORS
330
1DD2
102
}
330
1DD2
100
DictionaryVariables
280
     0
  1
0
  0
DICTIONARY
  5
25F5
330
1DC1
100
AcDbDictionary
280
     1
281
     1
  3
ACAD_XREC_ROUNDTRIP
360
25F6
  0
DICTIONARY
  5
25F3
330
1DC0
100
AcDbDictionary
280
     1
281
     1
  3
ACAD_XREC_ROUNDTRIP
360
25F4
  0
DICTIONARY
  5
25F7
330
1DC2
100
AcDbDictionary
280
     1
281
     1
  3
ACAD_XREC_ROUNDTRIP
360
25F8
  0
DICTIONARY
  5
25F9
330
1DCF
100
AcDbDictionary
280
     1
281
     1
  3
ACAD_XREC_ROUNDTRIP
360
25FA
  0
DICTIONARY
  5
25C7
330
2F
100
AcDbDictionary
280
     1
281
     1
  3
ACAD_XREC_ROUNDTRIP
360
25C8
  0
DICTIONARY
  5
25CB
330
31
100
AcDbDictionary
280
     1
281
     1
  3
ACAD_XREC_ROUNDTRIP
360
25CC
  0
DICTIONARY
  5
25C9
330
30
100
AcDbDictionary
280
     1
281
     1
  3
ACAD_XREC_ROUNDTRIP
360
25CA
  0
DICTIONARY
  5
25CD
330
32
100
AcDbDictionary
280
     1
281
     1
  3
ACAD_XREC_ROUNDTRIP
360
25CE
  0
DICTIONARY
  5
25D5
330
36
100
AcDbDictionary
280
     1
281
     1
  3
ACAD_XREC_ROUNDTRIP
360
25D6
  0
DICTIONARY
  5
25DD
330
3A
100
AcDbDictionary
280
     1
281
     1
  3
ACAD_XREC_ROUNDTRIP
360
25DE
  0
DICTIONARY
  5
25D1
330
34
100
AcDbDictionary
280
     1
281
     1
  3
ACAD_XREC_ROUNDTRIP
360
25D2
  0
DICTIONARY
  5
25D3
330
35
100
AcDbDictionary
280
     1
281
     1
  3
ACAD_XREC_ROUNDTRIP
360
25D4
  0
DICTIONARY
  5
25E7
330
1DC7
100
AcDbDictionary
280
     1
281
     1
  3
ACAD_XREC_ROUNDTRIP
360
25E8
  0
DICTIONARY
  5
25DB
330
39
100
AcDbDictionary
280
     1
281
     1
  3
ACAD_XREC_ROUNDTRIP
360
25DC
  0
DICTIONARY
  5
25BF
330
2B
100
AcDbDictionary
280
     1
281
     1
  3
ACAD_XREC_ROUNDTRIP
360
25C0
  0
DICTIONARY
  5
25C1
330
2C
100
AcDbDictionary
280
     1
281
     1
  3
ACAD_XREC_ROUNDTRIP
360
25C2
  0
DICTIONARY
  5
25C3
330
2D
100
AcDbDictionary
280
     1
281
     1
  3
ACAD_XREC_ROUNDTRIP
360
25C4
  0
DICTIONARY
  5
25C5
330
2E
100
AcDbDictionary
280
     1
281
     1
  3
ACAD_XREC_ROUNDTRIP
360
25C6
  0
DICTIONARY
  5
25E1
330
1DC4
100
AcDbDictionary
280
     1
281
     1
  3
ACAD_XREC_ROUNDTRIP
360
25E2
  0
DICTIONARY
  5
25E3
330
1DC5
100
AcDbDictionary
280
     1
281
     1
  3
ACAD_XREC_ROUNDTRIP
360
25E4
  0
DICTIONARY
  5
25D9
330
38
100
AcDbDictionary
280
     1
281
     1
  3
ACAD_XREC_ROUNDTRIP
360
25DA
  0
DICTIONARY
  5
25E5
330
1DC6
100
AcDbDictionary
280
     1
281
     1
  3
ACAD_XREC_ROUNDTRIP
360
25E6
  0
DICTIONARY
  5
25CF
330
33
100
AcDbDictionary
280
     1
281
     1
  3
ACAD_XREC_ROUNDTRIP
360
25D0
  0
DICTIONARY
  5
25F1
330
1DCC
100
AcDbDictionary
280
     1
281
     1
  3
ACAD_XREC_ROUNDTRIP
360
25F2
  0
DICTIONARY
  5
25EF
330
1DCB
100
AcDbDictionary
280
     1
281
     1
  3
ACAD_XREC_ROUNDTRIP
360
25F0
  0
DICTIONARY
  5
25E9
330
1DC8
100
AcDbDictionary
280
     1
281
     1
  3
ACAD_XREC_ROUNDTRIP
360
25EA
  0
DICTIONARY
  5
25EB
330
1DC9
100
AcDbDictionary
280
     1
281
     1
  3
ACAD_XREC_ROUNDTRIP
360
25EC
  0
DICTIONARY
  5
25D7
330
37
100
AcDbDictionary
280
     1
281
     1
  3
ACAD_XREC_ROUNDTRIP
360
25D8
  0
DICTIONARY
  5
25DF
330
1DC3
100
AcDbDictionary
280
     1
281
     1
  3
ACAD_XREC_ROUNDTRIP
360
25E0
  0
DICTIONARY
  5
25ED
330
1DCA
100
AcDbDictionary
280
     1
281
     1
  3
ACAD_XREC_ROUNDTRIP
360
25EE
  0
XRECORD
  5
25F6
102
{ACAD_REACTORS
330
25F5
102
}
330
25F5
100
AcDbXrecord
280
     1
102
MATERIAL
148
0.0
149
0.0
149
0.0
 93
        0
 94
      127
282
     0
 72
     1
 77
     1
171
     1
175
     1
179
     1
273
     0
  0
XRECORD
  5
25F4
102
{ACAD_REACTORS
330
25F3
102
}
330
25F3
100
AcDbXrecord
280
     1
102
MATERIAL
148
0.0
149
0.0
149
0.0
 93
        0
 94
      127
282
     0
 72
     1
 77
     1
171
     1
175
     1
179
     1
273
     0
  0
XRECORD
  5
25F8
102
{ACAD_REACTORS
330
25F7
102
}
330
25F7
100
AcDbXrecord
280
     1
102
MATERIAL
148
0.0
149
0.0
149
0.0
 93
        0
 94
      127
282
     0
 72
     1
 77
     1
171
     1
175
     1
179
     1
273
     0
  0
XRECORD
  5
25FA
102
{ACAD_REACTORS
330
25F9
102
}
330
25F9
100
AcDbXrecord
280
     1
102
ACAD_ROUNDTRIP_2010_MLEADER_STYLE
  0
XRECORD
  5
25C8
102
{ACAD_REACTORS
330
25C7
102
}
330
25C7
100
AcDbXrecord
280
     1
102
RTVSPropertyOp0
 70
     1
102
RTVSPropertyOp1
 70
     1
102
RTVSPropertyOp2
 70
     1
102
RTVSPropertyOp3
 70
     1
102
RTVSPropertyOp4
 70
     1
102
RTVSPropertyOp5
 70
     1
102
RTVSPropertyOp6
 70
     1
102
RTVSPropertyOp7
 70
     1
102
RTVSPropertyOp8
 70
     1
102
RTVSPropertyOp9
 70
     1
102
RTVSPropertyOp10
 70
     1
102
RTVSPropertyOp11
 70
     1
102
RTVSPropertyOp12
 70
     1
102
RTVSPropertyOp13
 70
     1
102
RTVSPropertyOp14
 70
     1
102
RTVSPropertyOp15
 70
     1
102
RTVSPropertyOp16
 70
     1
102
RTVSPropertyOp17
 70
     1
102
RTVSPropertyOp18
 70
     1
102
RTVSPropertyOp19
 70
     1
102
RTVSPropertyOp20
 70
     1
102
RTVSPropertyOp21
 70
     1
102
RTVSPropertyOp22
 70
     1
102
RTVSPropertyOp23
 70
     1
102
RTVSPropertyOp24
 70
     1
102
RTVSPropertyOp25
 70
     1
102
RTVSPropertyOp26
 70
     1
102
RTVSPropertyOp27
 70
     1
102
RTVSPropertyOp28
 70
     1
102
RTVSPropertyOp29
 70
     1
102
RTVSPropertyOp30
 70
     1
102
RTVSPropertyOp31
 70
     1
102
RTVSPropertyOp32
 70
     1
102
RTVSPropertyOp33
 70
     1
102
RTVSPropertyOp34
 70
     1
102
RTVSPropertyOp35
 70
     1
102
RTVSPropertyOp36
 70
     1
102
RTVSPropertyOp37
 70
     1
102
RTVSPropertyOp38
 70
     1
102
RTVSPropertyOp39
 70
     1
102
RTVSPropertyOp40
 70
     1
102
RTVSPropertyOp41
 70
     1
102
RTVSPropertyOp42
 70
     1
102
RTVSPropertyOp43
 70
     1
102
RTVSPropertyOp44
 70
     1
102
RTVSPropertyOp45
 70
     1
102
RTVSPropertyOp46
 70
     1
102
RTVSPropertyOp47
 70
     1
102
RTVSPropertyOp48
 70
     1
102
RTVSPropertyOp49
 70
     1
102
RTVSPropertyOp50
 70
     1
102
RTVSPropertyOp51
 70
     0
102
RTVSPropertyOp52
 70
     0
102
RTVSPropertyOp53
 70
     1
102
RTVSPropertyOp54
 70
     1
102
RTVSPropertyOp55
 70
     1
102
RTVSPropertyOp56
 70
     1
102
RTVSPropertyOp57
 70
     1
102
RTVSPost2010Prop28
280
     1
102
RTVSPost2010PropOp28
 70
     1
102
RTVSPost2010Prop29
280
     1
102
RTVSPost2010PropOp29
 70
     1
102
RTVSPost2010Prop30
280
     0
102
RTVSPost2010PropOp30
 70
     1
102
RTVSPost2010Prop31
280
     0
102
RTVSPost2010PropOp31
 70
     1
102
RTVSPost2010Prop32
280
     0
102
RTVSPost2010PropOp32
 70
     1
102
RTVSPost2010Prop33
280
     0
102
RTVSPost2010PropOp33
 70
     1
102
RTVSPost2010Prop34
280
     0
102
RTVSPost2010PropOp34
 70
     1
102
RTVSPost2010Prop35
280
     0
102
RTVSPost2010PropOp35
 70
     1
102
RTVSPost2010Prop36
280
     0
102
RTVSPost2010PropOp36
 70
     1
102
RTVSPost2010Prop37
 90
       50
102
RTVSPost2010PropOp37
 70
     1
102
RTVSPost2010Prop38
140
0.0
102
RTVSPost2010PropOp38
 70
     1
102
RTVSPost2010Prop39
140
1.0
102
RTVSPost2010PropOp39
 70
     1
102
RTVSPost2010Prop40
 90
        0
102
RTVSPost2010PropOp40
 70
     1
102
RTVSPost2010Prop41ColorIndex
 90
       18
102
RTVSPost2010Prop41ColorRGB
 90
        0
102
RTVSPost2010PropOp41
 70
     1
102
RTVSPost2010Prop42
 90
       50
102
RTVSPost2010PropOp42
 70
     1
102
RTVSPost2010Prop43
 90
        3
102
RTVSPost2010PropOp43
 70
     1
102
RTVSPost2010Prop44ColorIndex
 90
        5
102
RTVSPost2010Prop44ColorRGB
 90
      255
102
RTVSPost2010PropOp44
 70
     1
102
RTVSPost2010Prop45
280
     0
102
RTVSPost2010PropOp45
 70
     1
102
RTVSPost2010Prop46
 90
       50
102
RTVSPost2010PropOp46
 70
     1
102
RTVSPost2010Prop47
 90
       50
102
RTVSPost2010PropOp47
 70
     1
102
RTVSPost2010Prop48
 90
       50
102
RTVSPost2010PropOp48
 70
     1
102
RTVSPost2010Prop49
280
     0
102
RTVSPost2010PropOp49
 70
     1
102
RTVSPost2010Prop50
 90
       50
102
RTVSPost2010PropOp50
 70
     1
102
RTVSPost2010Prop51ColorIndex
 90
      256
102
RTVSPost2010Prop51ColorRGB
 90
-16777216
102
RTVSPost2010PropOp51
 70
     0
102
RTVSPost2010Prop52
140
1.0
102
RTVSPost2010PropOp52
 70
     0
102
RTVSPost2010Prop53
 90
        2
102
RTVSPost2010PropOp53
 70
     1
102
RTVSPost2010Prop54
  1
strokes_ogs.tif
102
RTVSPost2010PropOp54
 70
     1
102
RTVSPost2010Prop55
280
     0
102
RTVSPost2010PropOp55
 70
     1
102
RTVSPost2010Prop56
140
1.0
102
RTVSPost2010PropOp56
 70
     1
102
RTVSPost2010Prop57
140
1.0
102
RTVSPost2010PropOp57
 70
     1
  0
XRECORD
  5
25CC
102
{ACAD_REACTORS
330
25CB
102
}
330
25CB
100
AcDbXrecord
280
     1
102
RTVSPropertyOp0
 70
     1
102
RTVSPropertyOp1
 70
     1
102
RTVSPropertyOp2
 70
     1
102
RTVSPropertyOp3
 70
     1
102
RTVSPropertyOp4
 70
     1
102
RTVSPropertyOp5
 70
     1
102
RTVSPropertyOp6
 70
     1
102
RTVSPropertyOp7
 70
     1
102
RTVSPropertyOp8
 70
     1
102
RTVSPropertyOp9
 70
     1
102
RTVSPropertyOp10
 70
     1
102
RTVSPropertyOp11
 70
     1
102
RTVSPropertyOp12
 70
     1
102
RTVSPropertyOp13
 70
     1
102
RTVSPropertyOp14
 70
     1
102
RTVSPropertyOp15
 70
     1
102
RTVSPropertyOp16
 70
     1
102
RTVSPropertyOp17
 70
     1
102
RTVSPropertyOp18
 70
     1
102
RTVSPropertyOp19
 70
     1
102
RTVSPropertyOp20
 70
     1
102
RTVSPropertyOp21
 70
     1
102
RTVSPropertyOp22
 70
     1
102
RTVSPropertyOp23
 70
     1
102
RTVSPropertyOp24
 70
     1
102
RTVSPropertyOp25
 70
     1
102
RTVSPropertyOp26
 70
     1
102
RTVSPropertyOp27
 70
     1
102
RTVSPropertyOp28
 70
     1
102
RTVSPropertyOp29
 70
     1
102
RTVSPropertyOp30
 70
     1
102
RTVSPropertyOp31
 70
     1
102
RTVSPropertyOp32
 70
     1
102
RTVSPropertyOp33
 70
     1
102
RTVSPropertyOp34
 70
     1
102
RTVSPropertyOp35
 70
     1
102
RTVSPropertyOp36
 70
     1
102
RTVSPropertyOp37
 70
     1
102
RTVSPropertyOp38
 70
     1
102
RTVSPropertyOp39
 70
     1
102
RTVSPropertyOp40
 70
     1
102
RTVSPropertyOp41
 70
     1
102
RTVSPropertyOp42
 70
     1
102
RTVSPropertyOp43
 70
     1
102
RTVSPropertyOp44
 70
     1
102
RTVSPropertyOp45
 70
     1
102
RTVSPropertyOp46
 70
     1
102
RTVSPropertyOp47
 70
     1
102
RTVSPropertyOp48
 70
     1
102
RTVSPropertyOp49
 70
     1
102
RTVSPropertyOp50
 70
     1
102
RTVSPropertyOp51
 70
     0
102
RTVSPropertyOp52
 70
     0
102
RTVSPropertyOp53
 70
     1
102
RTVSPropertyOp54
 70
     1
102
RTVSPropertyOp55
 70
     1
102
RTVSPropertyOp56
 70
     1
102
RTVSPropertyOp57
 70
     1
102
RTVSPost2010Prop28
280
     0
102
RTVSPost2010PropOp28
 70
     1
102
RTVSPost2010Prop29
280
     1
102
RTVSPost2010PropOp29
 70
     1
102
RTVSPost2010Prop30
280
     1
102
RTVSPost2010PropOp30
 70
     1
102
RTVSPost2010Prop31
280
     0
102
RTVSPost2010PropOp31
 70
     1
102
RTVSPost2010Prop32
280
     0
102
RTVSPost2010PropOp32
 70
     1
102
RTVSPost2010Prop33
280
     0
102
RTVSPost2010PropOp33
 70
     1
102
RTVSPost2010Prop34
280
     0
102
RTVSPost2010PropOp34
 70
     1
102
RTVSPost2010Prop35
280
     0
102
RTVSPost2010PropOp35
 70
     1
102
RTVSPost2010Prop36
280
     0
102
RTVSPost2010PropOp36
 70
     1
102
RTVSPost2010Prop37
 90
       50
102
RTVSPost2010PropOp37
 70
     1
102
RTVSPost2010Prop38
140
0.0
102
RTVSPost2010PropOp38
 70
     1
102
RTVSPost2010Prop39
140
1.0
102
RTVSPost2010PropOp39
 70
     1
102
RTVSPost2010Prop40
 90
        0
102
RTVSPost2010PropOp40
 70
     1
102
RTVSPost2010Prop41ColorIndex
 90
       18
102
RTVSPost2010Prop41ColorRGB
 90
        0
102
RTVSPost2010PropOp41
 70
     1
102
RTVSPost2010Prop42
 90
       50
102
RTVSPost2010PropOp42
 70
     1
102
RTVSPost2010Prop43
 90
        3
102
RTVSPost2010PropOp43
 70
     1
102
RTVSPost2010Prop44ColorIndex
 90
        5
102
RTVSPost2010Prop44ColorRGB
 90
      255
102
RTVSPost2010PropOp44
 70
     1
102
RTVSPost2010Prop45
280
     0
102
RTVSPost2010PropOp45
 70
     1
102
RTVSPost2010Prop46
 90
       50
102
RTVSPost2010PropOp46
 70
     1
102
RTVSPost2010Prop47
 90
       50
102
RTVSPost2010PropOp47
 70
     1
102
RTVSPost2010Prop48
 90
       50
102
RTVSPost2010PropOp48
 70
     1
102
RTVSPost2010Prop49
280
     0
102
RTVSPost2010PropOp49
 70
     1
102
RTVSPost2010Prop50
 90
       50
102
RTVSPost2010PropOp50
 70
     1
102
RTVSPost2010Prop51ColorIndex
 90
      256
102
RTVSPost2010Prop51ColorRGB
 90
-16777216
102
RTVSPost2010PropOp51
 70
     0
102
RTVSPost2010Prop52
140
1.0
102
RTVSPost2010PropOp52
 70
     0
102
RTVSPost2010Prop53
 90
        2
102
RTVSPost2010PropOp53
 70
     1
102
RTVSPost2010Prop54
  1
strokes_ogs.tif
102
RTVSPost2010PropOp54
 70
     1
102
RTVSPost2010Prop55
280
     0
102
RTVSPost2010PropOp55
 70
     1
102
RTVSPost2010Prop56
140
1.0
102
RTVSPost2010PropOp56
 70
     1
102
RTVSPost2010Prop57
140
1.0
102
RTVSPost2010PropOp57
 70
     1
  0
XRECORD
  5
25CA
102
{ACAD_REACTORS
330
25C9
102
}
330
25C9
100
AcDbXrecord
280
     1
102
RTVSPropertyOp0
 70
     1
102
RTVSPropertyOp1
 70
     1
102
RTVSPropertyOp2
 70
     1
102
RTVSPropertyOp3
 70
     1
102
RTVSPropertyOp4
 70
     1
102
RTVSPropertyOp5
 70
     1
102
RTVSPropertyOp6
 70
     1
102
RTVSPropertyOp7
 70
     1
102
RTVSPropertyOp8
 70
     1
102
RTVSPropertyOp9
 70
     1
102
RTVSPropertyOp10
 70
     1
102
RTVSPropertyOp11
 70
     1
102
RTVSPropertyOp12
 70
     1
102
RTVSPropertyOp13
 70
     1
102
RTVSPropertyOp14
 70
     1
102
RTVSPropertyOp15
 70
     1
102
RTVSPropertyOp16
 70
     1
102
RTVSPropertyOp17
 70
     1
102
RTVSPropertyOp18
 70
     1
102
RTVSPropertyOp19
 70
     1
102
RTVSPropertyOp20
 70
     1
102
RTVSPropertyOp21
 70
     1
102
RTVSPropertyOp22
 70
     1
102
RTVSPropertyOp23
 70
     1
102
RTVSPropertyOp24
 70
     1
102
RTVSPropertyOp25
 70
     1
102
RTVSPropertyOp26
 70
     1
102
RTVSPropertyOp27
 70
     1
102
RTVSPropertyOp28
 70
     1
102
RTVSPropertyOp29
 70
     1
102
RTVSPropertyOp30
 70
     1
102
RTVSPropertyOp31
 70
     1
102
RTVSPropertyOp32
 70
     1
102
RTVSPropertyOp33
 70
     1
102
RTVSPropertyOp34
 70
     1
102
RTVSPropertyOp35
 70
     1
102
RTVSPropertyOp36
 70
     1
102
RTVSPropertyOp37
 70
     1
102
RTVSPropertyOp38
 70
     1
102
RTVSPropertyOp39
 70
     1
102
RTVSPropertyOp40
 70
     1
102
RTVSPropertyOp41
 70
     1
102
RTVSPropertyOp42
 70
     1
102
RTVSPropertyOp43
 70
     1
102
RTVSPropertyOp44
 70
     1
102
RTVSPropertyOp45
 70
     1
102
RTVSPropertyOp46
 70
     1
102
RTVSPropertyOp47
 70
     1
102
RTVSPropertyOp48
 70
     1
102
RTVSPropertyOp49
 70
     1
102
RTVSPropertyOp50
 70
     1
102
RTVSPropertyOp51
 70
     0
102
RTVSPropertyOp52
 70
     0
102
RTVSPropertyOp53
 70
     1
102
RTVSPropertyOp54
 70
     1
102
RTVSPropertyOp55
 70
     1
102
RTVSPropertyOp56
 70
     1
102
RTVSPropertyOp57
 70
     1
102
RTVSPost2010Prop28
280
     0
102
RTVSPost2010PropOp28
 70
     1
102
RTVSPost2010Prop29
280
     1
102
RTVSPost2010PropOp29
 70
     1
102
RTVSPost2010Prop30
280
     1
102
RTVSPost2010PropOp30
 70
     1
102
RTVSPost2010Prop31
280
     0
102
RTVSPost2010PropOp31
 70
     1
102
RTVSPost2010Prop32
280
     0
102
RTVSPost2010PropOp32
 70
     1
102
RTVSPost2010Prop33
280
     0
102
RTVSPost2010PropOp33
 70
     1
102
RTVSPost2010Prop34
280
     0
102
RTVSPost2010PropOp34
 70
     1
102
RTVSPost2010Prop35
280
     0
102
RTVSPost2010PropOp35
 70
     1
102
RTVSPost2010Prop36
280
     0
102
RTVSPost2010PropOp36
 70
     1
102
RTVSPost2010Prop37
 90
       50
102
RTVSPost2010PropOp37
 70
     1
102
RTVSPost2010Prop38
140
0.0
102
RTVSPost2010PropOp38
 70
     1
102
RTVSPost2010Prop39
140
1.0
102
RTVSPost2010PropOp39
 70
     1
102
RTVSPost2010Prop40
 90
        0
102
RTVSPost2010PropOp40
 70
     1
102
RTVSPost2010Prop41ColorIndex
 90
       18
102
RTVSPost2010Prop41ColorRGB
 90
        0
102
RTVSPost2010PropOp41
 70
     1
102
RTVSPost2010Prop42
 90
       50
102
RTVSPost2010PropOp42
 70
     1
102
RTVSPost2010Prop43
 90
        3
102
RTVSPost2010PropOp43
 70
     1
102
RTVSPost2010Prop44ColorIndex
 90
        5
102
RTVSPost2010Prop44ColorRGB
 90
      255
102
RTVSPost2010PropOp44
 70
     1
102
RTVSPost2010Prop45
280
     0
102
RTVSPost2010PropOp45
 70
     1
102
RTVSPost2010Prop46
 90
       50
102
RTVSPost2010PropOp46
 70
     1
102
RTVSPost2010Prop47
 90
       50
102
RTVSPost2010PropOp47
 70
     1
102
RTVSPost2010Prop48
 90
       50
102
RTVSPost2010PropOp48
 70
     1
102
RTVSPost2010Prop49
280
     0
102
RTVSPost2010PropOp49
 70
     1
102
RTVSPost2010Prop50
 90
       50
102
RTVSPost2010PropOp50
 70
     1
102
RTVSPost2010Prop51ColorIndex
 90
      256
102
RTVSPost2010Prop51ColorRGB
 90
-16777216
102
RTVSPost2010PropOp51
 70
     0
102
RTVSPost2010Prop52
140
1.0
102
RTVSPost2010PropOp52
 70
     0
102
RTVSPost2010Prop53
 90
        2
102
RTVSPost2010PropOp53
 70
     1
102
RTVSPost2010Prop54
  1
strokes_ogs.tif
102
RTVSPost2010PropOp54
 70
     1
102
RTVSPost2010Prop55
280
     0
102
RTVSPost2010PropOp55
 70
     1
102
RTVSPost2010Prop56
140
1.0
102
RTVSPost2010PropOp56
 70
     1
102
RTVSPost2010Prop57
140
1.0
102
RTVSPost2010PropOp57
 70
     1
  0
XRECORD
  5
25CE
102
{ACAD_REACTORS
330
25CD
102
}
330
25CD
100
AcDbXrecord
280
     1
102
RTVSPropertyOp0
 70
     1
102
RTVSPropertyOp1
 70
     1
102
RTVSPropertyOp2
 70
     1
102
RTVSPropertyOp3
 70
     1
102
RTVSPropertyOp4
 70
     1
102
RTVSPropertyOp5
 70
     1
102
RTVSPropertyOp6
 70
     1
102
RTVSPropertyOp7
 70
     1
102
RTVSPropertyOp8
 70
     1
102
RTVSPropertyOp9
 70
     1
102
RTVSPropertyOp10
 70
     1
102
RTVSPropertyOp11
 70
     1
102
RTVSPropertyOp12
 70
     1
102
RTVSPropertyOp13
 70
     1
102
RTVSPropertyOp14
 70
     1
102
RTVSPropertyOp15
 70
     1
102
RTVSPropertyOp16
 70
     1
102
RTVSPropertyOp17
 70
     1
102
RTVSPropertyOp18
 70
     1
102
RTVSPropertyOp19
 70
     1
102
RTVSPropertyOp20
 70
     1
102
RTVSPropertyOp21
 70
     1
102
RTVSPropertyOp22
 70
     1
102
RTVSPropertyOp23
 70
     1
102
RTVSPropertyOp24
 70
     1
102
RTVSPropertyOp25
 70
     1
102
RTVSPropertyOp26
 70
     1
102
RTVSPropertyOp27
 70
     1
102
RTVSPropertyOp28
 70
     1
102
RTVSPropertyOp29
 70
     1
102
RTVSPropertyOp30
 70
     1
102
RTVSPropertyOp31
 70
     1
102
RTVSPropertyOp32
 70
     1
102
RTVSPropertyOp33
 70
     1
102
RTVSPropertyOp34
 70
     1
102
RTVSPropertyOp35
 70
     1
102
RTVSPropertyOp36
 70
     1
102
RTVSPropertyOp37
 70
     1
102
RTVSPropertyOp38
 70
     1
102
RTVSPropertyOp39
 70
     1
102
RTVSPropertyOp40
 70
     1
102
RTVSPropertyOp41
 70
     1
102
RTVSPropertyOp42
 70
     1
102
RTVSPropertyOp43
 70
     1
102
RTVSPropertyOp44
 70
     1
102
RTVSPropertyOp45
 70
     1
102
RTVSPropertyOp46
 70
     1
102
RTVSPropertyOp47
 70
     1
102
RTVSPropertyOp48
 70
     1
102
RTVSPropertyOp49
 70
     1
102
RTVSPropertyOp50
 70
     1
102
RTVSPropertyOp51
 70
     0
102
RTVSPropertyOp52
 70
     0
102
RTVSPropertyOp53
 70
     1
102
RTVSPropertyOp54
 70
     1
102
RTVSPropertyOp55
 70
     1
102
RTVSPropertyOp56
 70
     1
102
RTVSPropertyOp57
 70
     1
102
RTVSPost2010Prop28
280
     0
102
RTVSPost2010PropOp28
 70
     1
102
RTVSPost2010Prop29
280
     1
102
RTVSPost2010PropOp29
 70
     1
102
RTVSPost2010Prop30
280
     1
102
RTVSPost2010PropOp30
 70
     1
102
RTVSPost2010Prop31
280
     0
102
RTVSPost2010PropOp31
 70
     1
102
RTVSPost2010Prop32
280
     0
102
RTVSPost2010PropOp32
 70
     1
102
RTVSPost2010Prop33
280
     0
102
RTVSPost2010PropOp33
 70
     1
102
RTVSPost2010Prop34
280
     0
102
RTVSPost2010PropOp34
 70
     1
102
RTVSPost2010Prop35
280
     0
102
RTVSPost2010PropOp35
 70
     1
102
RTVSPost2010Prop36
280
     0
102
RTVSPost2010PropOp36
 70
     1
102
RTVSPost2010Prop37
 90
       50
102
RTVSPost2010PropOp37
 70
     1
102
RTVSPost2010Prop38
140
0.0
102
RTVSPost2010PropOp38
 70
     1
102
RTVSPost2010Prop39
140
1.0
102
RTVSPost2010PropOp39
 70
     1
102
RTVSPost2010Prop40
 90
        0
102
RTVSPost2010PropOp40
 70
     1
102
RTVSPost2010Prop41ColorIndex
 90
       18
102
RTVSPost2010Prop41ColorRGB
 90
        0
102
RTVSPost2010PropOp41
 70
     1
102
RTVSPost2010Prop42
 90
       50
102
RTVSPost2010PropOp42
 70
     1
102
RTVSPost2010Prop43
 90
        3
102
RTVSPost2010PropOp43
 70
     1
102
RTVSPost2010Prop44ColorIndex
 90
        5
102
RTVSPost2010Prop44ColorRGB
 90
      255
102
RTVSPost2010PropOp44
 70
     1
102
RTVSPost2010Prop45
280
     0
102
RTVSPost2010PropOp45
 70
     1
102
RTVSPost2010Prop46
 90
       50
102
RTVSPost2010PropOp46
 70
     1
102
RTVSPost2010Prop47
 90
       50
102
RTVSPost2010PropOp47
 70
     1
102
RTVSPost2010Prop48
 90
       50
102
RTVSPost2010PropOp48
 70
     1
102
RTVSPost2010Prop49
280
     0
102
RTVSPost2010PropOp49
 70
     1
102
RTVSPost2010Prop50
 90
       50
102
RTVSPost2010PropOp50
 70
     1
102
RTVSPost2010Prop51ColorIndex
 90
      256
102
RTVSPost2010Prop51ColorRGB
 90
-16777216
102
RTVSPost2010PropOp51
 70
     0
102
RTVSPost2010Prop52
140
1.0
102
RTVSPost2010PropOp52
 70
     0
102
RTVSPost2010Prop53
 90
        2
102
RTVSPost2010PropOp53
 70
     1
102
RTVSPost2010Prop54
  1
strokes_ogs.tif
102
RTVSPost2010PropOp54
 70
     1
102
RTVSPost2010Prop55
280
     0
102
RTVSPost2010PropOp55
 70
     1
102
RTVSPost2010Prop56
140
1.0
102
RTVSPost2010PropOp56
 70
     1
102
RTVSPost2010Prop57
140
1.0
102
RTVSPost2010PropOp57
 70
     1
  0
XRECORD
  5
25D6
102
{ACAD_REACTORS
330
25D5
102
}
330
25D5
100
AcDbXrecord
280
     1
102
RTVSPropertyOp0
 70
     1
102
RTVSPropertyOp1
 70
     1
102
RTVSPropertyOp2
 70
     1
102
RTVSPropertyOp3
 70
     1
102
RTVSPropertyOp4
 70
     1
102
RTVSPropertyOp5
 70
     1
102
RTVSPropertyOp6
 70
     1
102
RTVSPropertyOp7
 70
     1
102
RTVSPropertyOp8
 70
     1
102
RTVSPropertyOp9
 70
     1
102
RTVSPropertyOp10
 70
     1
102
RTVSPropertyOp11
 70
     1
102
RTVSPropertyOp12
 70
     1
102
RTVSPropertyOp13
 70
     1
102
RTVSPropertyOp14
 70
     1
102
RTVSPropertyOp15
 70
     1
102
RTVSPropertyOp16
 70
     1
102
RTVSPropertyOp17
 70
     1
102
RTVSPropertyOp18
 70
     1
102
RTVSPropertyOp19
 70
     1
102
RTVSPropertyOp20
 70
     1
102
RTVSPropertyOp21
 70
     1
102
RTVSPropertyOp22
 70
     1
102
RTVSPropertyOp23
 70
     1
102
RTVSPropertyOp24
 70
     1
102
RTVSPropertyOp25
 70
     1
102
RTVSPropertyOp26
 70
     1
102
RTVSPropertyOp27
 70
     1
102
RTVSPropertyOp28
 70
     1
102
RTVSPropertyOp29
 70
     1
102
RTVSPropertyOp30
 70
     1
102
RTVSPropertyOp31
 70
     1
102
RTVSPropertyOp32
 70
     1
102
RTVSPropertyOp33
 70
     1
102
RTVSPropertyOp34
 70
     1
102
RTVSPropertyOp35
 70
     1
102
RTVSPropertyOp36
 70
     1
102
RTVSPropertyOp37
 70
     1
102
RTVSPropertyOp38
 70
     1
102
RTVSPropertyOp39
 70
     1
102
RTVSPropertyOp40
 70
     1
102
RTVSPropertyOp41
 70
     1
102
RTVSPropertyOp42
 70
     1
102
RTVSPropertyOp43
 70
     1
102
RTVSPropertyOp44
 70
     1
102
RTVSPropertyOp45
 70
     1
102
RTVSPropertyOp46
 70
     1
102
RTVSPropertyOp47
 70
     1
102
RTVSPropertyOp48
 70
     1
102
RTVSPropertyOp49
 70
     1
102
RTVSPropertyOp50
 70
     1
102
RTVSPropertyOp51
 70
     0
102
RTVSPropertyOp52
 70
     0
102
RTVSPropertyOp53
 70
     1
102
RTVSPropertyOp54
 70
     1
102
RTVSPropertyOp55
 70
     1
102
RTVSPropertyOp56
 70
     1
102
RTVSPropertyOp57
 70
     1
102
RTVSPost2010Prop28
280
     0
102
RTVSPost2010PropOp28
 70
     1
102
RTVSPost2010Prop29
280
     1
102
RTVSPost2010PropOp29
 70
     1
102
RTVSPost2010Prop30
280
     1
102
RTVSPost2010PropOp30
 70
     1
102
RTVSPost2010Prop31
280
     0
102
RTVSPost2010PropOp31
 70
     1
102
RTVSPost2010Prop32
280
     0
102
RTVSPost2010PropOp32
 70
     1
102
RTVSPost2010Prop33
280
     0
102
RTVSPost2010PropOp33
 70
     1
102
RTVSPost2010Prop34
280
     0
102
RTVSPost2010PropOp34
 70
     1
102
RTVSPost2010Prop35
280
     0
102
RTVSPost2010PropOp35
 70
     1
102
RTVSPost2010Prop36
280
     0
102
RTVSPost2010PropOp36
 70
     1
102
RTVSPost2010Prop37
 90
       50
102
RTVSPost2010PropOp37
 70
     1
102
RTVSPost2010Prop38
140
0.0
102
RTVSPost2010PropOp38
 70
     1
102
RTVSPost2010Prop39
140
1.0
102
RTVSPost2010PropOp39
 70
     1
102
RTVSPost2010Prop40
 90
        0
102
RTVSPost2010PropOp40
 70
     1
102
RTVSPost2010Prop41ColorIndex
 90
       18
102
RTVSPost2010Prop41ColorRGB
 90
        0
102
RTVSPost2010PropOp41
 70
     1
102
RTVSPost2010Prop42
 90
       50
102
RTVSPost2010PropOp42
 70
     1
102
RTVSPost2010Prop43
 90
        3
102
RTVSPost2010PropOp43
 70
     1
102
RTVSPost2010Prop44ColorIndex
 90
        5
102
RTVSPost2010Prop44ColorRGB
 90
      255
102
RTVSPost2010PropOp44
 70
     1
102
RTVSPost2010Prop45
280
     0
102
RTVSPost2010PropOp45
 70
     1
102
RTVSPost2010Prop46
 90
       50
102
RTVSPost2010PropOp46
 70
     1
102
RTVSPost2010Prop47
 90
       50
102
RTVSPost2010PropOp47
 70
     1
102
RTVSPost2010Prop48
 90
       50
102
RTVSPost2010PropOp48
 70
     1
102
RTVSPost2010Prop49
280
     0
102
RTVSPost2010PropOp49
 70
     1
102
RTVSPost2010Prop50
 90
       50
102
RTVSPost2010PropOp50
 70
     1
102
RTVSPost2010Prop51ColorIndex
 90
      256
102
RTVSPost2010Prop51ColorRGB
 90
-16777216
102
RTVSPost2010PropOp51
 70
     0
102
RTVSPost2010Prop52
140
1.0
102
RTVSPost2010PropOp52
 70
     0
102
RTVSPost2010Prop53
 90
        2
102
RTVSPost2010PropOp53
 70
     1
102
RTVSPost2010Prop54
  1
strokes_ogs.tif
102
RTVSPost2010PropOp54
 70
     1
102
RTVSPost2010Prop55
280
     0
102
RTVSPost2010PropOp55
 70
     1
102
RTVSPost2010Prop56
140
1.0
102
RTVSPost2010PropOp56
 70
     1
102
RTVSPost2010Prop57
140
1.0
102
RTVSPost2010PropOp57
 70
     1
  0
XRECORD
  5
25DE
102
{ACAD_REACTORS
330
25DD
102
}
330
25DD
100
AcDbXrecord
280
     1
102
RTVSPropertyOp0
 70
     1
102
RTVSPropertyOp1
 70
     1
102
RTVSPropertyOp2
 70
     1
102
RTVSPropertyOp3
 70
     1
102
RTVSPropertyOp4
 70
     1
102
RTVSPropertyOp5
 70
     1
102
RTVSPropertyOp6
 70
     1
102
RTVSPropertyOp7
 70
     1
102
RTVSPropertyOp8
 70
     1
102
RTVSPropertyOp9
 70
     1
102
RTVSPropertyOp10
 70
     1
102
RTVSPropertyOp11
 70
     1
102
RTVSPropertyOp12
 70
     1
102
RTVSPropertyOp13
 70
     1
102
RTVSPropertyOp14
 70
     1
102
RTVSPropertyOp15
 70
     1
102
RTVSPropertyOp16
 70
     1
102
RTVSPropertyOp17
 70
     1
102
RTVSPropertyOp18
 70
     1
102
RTVSPropertyOp19
 70
     1
102
RTVSPropertyOp20
 70
     1
102
RTVSPropertyOp21
 70
     1
102
RTVSPropertyOp22
 70
     1
102
RTVSPropertyOp23
 70
     1
102
RTVSPropertyOp24
 70
     1
102
RTVSPropertyOp25
 70
     1
102
RTVSPropertyOp26
 70
     1
102
RTVSPropertyOp27
 70
     1
102
RTVSPropertyOp28
 70
     1
102
RTVSPropertyOp29
 70
     1
102
RTVSPropertyOp30
 70
     1
102
RTVSPropertyOp31
 70
     1
102
RTVSPropertyOp32
 70
     1
102
RTVSPropertyOp33
 70
     1
102
RTVSPropertyOp34
 70
     1
102
RTVSPropertyOp35
 70
     1
102
RTVSPropertyOp36
 70
     1
102
RTVSPropertyOp37
 70
     1
102
RTVSPropertyOp38
 70
     1
102
RTVSPropertyOp39
 70
     1
102
RTVSPropertyOp40
 70
     1
102
RTVSPropertyOp41
 70
     1
102
RTVSPropertyOp42
 70
     1
102
RTVSPropertyOp43
 70
     1
102
RTVSPropertyOp44
 70
     1
102
RTVSPropertyOp45
 70
     1
102
RTVSPropertyOp46
 70
     1
102
RTVSPropertyOp47
 70
     1
102
RTVSPropertyOp48
 70
     1
102
RTVSPropertyOp49
 70
     1
102
RTVSPropertyOp50
 70
     1
102
RTVSPropertyOp51
 70
     0
102
RTVSPropertyOp52
 70
     0
102
RTVSPropertyOp53
 70
     1
102
RTVSPropertyOp54
 70
     1
102
RTVSPropertyOp55
 70
     1
102
RTVSPropertyOp56
 70
     1
102
RTVSPropertyOp57
 70
     1
102
RTVSPost2010Prop28
280
     0
102
RTVSPost2010PropOp28
 70
     1
102
RTVSPost2010Prop29
280
     1
102
RTVSPost2010PropOp29
 70
     1
102
RTVSPost2010Prop30
280
     1
102
RTVSPost2010PropOp30
 70
     1
102
RTVSPost2010Prop31
280
     0
102
RTVSPost2010PropOp31
 70
     1
102
RTVSPost2010Prop32
280
     0
102
RTVSPost2010PropOp32
 70
     1
102
RTVSPost2010Prop33
280
     0
102
RTVSPost2010PropOp33
 70
     1
102
RTVSPost2010Prop34
280
     0
102
RTVSPost2010PropOp34
 70
     1
102
RTVSPost2010Prop35
280
     0
102
RTVSPost2010PropOp35
 70
     1
102
RTVSPost2010Prop36
280
     0
102
RTVSPost2010PropOp36
 70
     1
102
RTVSPost2010Prop37
 90
       50
102
RTVSPost2010PropOp37
 70
     1
102
RTVSPost2010Prop38
140
0.0
102
RTVSPost2010PropOp38
 70
     1
102
RTVSPost2010Prop39
140
1.0
102
RTVSPost2010PropOp39
 70
     1
102
RTVSPost2010Prop40
 90
        0
102
RTVSPost2010PropOp40
 70
     1
102
RTVSPost2010Prop41ColorIndex
 90
       18
102
RTVSPost2010Prop41ColorRGB
 90
        0
102
RTVSPost2010PropOp41
 70
     1
102
RTVSPost2010Prop42
 90
       50
102
RTVSPost2010PropOp42
 70
     1
102
RTVSPost2010Prop43
 90
        3
102
RTVSPost2010PropOp43
 70
     1
102
RTVSPost2010Prop44ColorIndex
 90
        5
102
RTVSPost2010Prop44ColorRGB
 90
      255
102
RTVSPost2010PropOp44
 70
     1
102
RTVSPost2010Prop45
280
     0
102
RTVSPost2010PropOp45
 70
     1
102
RTVSPost2010Prop46
 90
       50
102
RTVSPost2010PropOp46
 70
     1
102
RTVSPost2010Prop47
 90
       50
102
RTVSPost2010PropOp47
 70
     1
102
RTVSPost2010Prop48
 90
       50
102
RTVSPost2010PropOp48
 70
     1
102
RTVSPost2010Prop49
280
     0
102
RTVSPost2010PropOp49
 70
     1
102
RTVSPost2010Prop50
 90
       50
102
RTVSPost2010PropOp50
 70
     1
102
RTVSPost2010Prop51ColorIndex
 90
      256
102
RTVSPost2010Prop51ColorRGB
 90
-16777216
102
RTVSPost2010PropOp51
 70
     0
102
RTVSPost2010Prop52
140
1.0
102
RTVSPost2010PropOp52
 70
     0
102
RTVSPost2010Prop53
 90
        2
102
RTVSPost2010PropOp53
 70
     1
102
RTVSPost2010Prop54
  1
strokes_ogs.tif
102
RTVSPost2010PropOp54
 70
     1
102
RTVSPost2010Prop55
280
     0
102
RTVSPost2010PropOp55
 70
     1
102
RTVSPost2010Prop56
140
1.0
102
RTVSPost2010PropOp56
 70
     1
102
RTVSPost2010Prop57
140
1.0
102
RTVSPost2010PropOp57
 70
     1
  0
XRECORD
  5
25D2
102
{ACAD_REACTORS
330
25D1
102
}
330
25D1
100
AcDbXrecord
280
     1
102
RTVSPropertyOp0
 70
     1
102
RTVSPropertyOp1
 70
     1
102
RTVSPropertyOp2
 70
     1
102
RTVSPropertyOp3
 70
     1
102
RTVSPropertyOp4
 70
     1
102
RTVSPropertyOp5
 70
     1
102
RTVSPropertyOp6
 70
     1
102
RTVSPropertyOp7
 70
     1
102
RTVSPropertyOp8
 70
     1
102
RTVSPropertyOp9
 70
     1
102
RTVSPropertyOp10
 70
     1
102
RTVSPropertyOp11
 70
     1
102
RTVSPropertyOp12
 70
     1
102
RTVSPropertyOp13
 70
     1
102
RTVSPropertyOp14
 70
     1
102
RTVSPropertyOp15
 70
     1
102
RTVSPropertyOp16
 70
     1
102
RTVSPropertyOp17
 70
     1
102
RTVSPropertyOp18
 70
     1
102
RTVSPropertyOp19
 70
     1
102
RTVSPropertyOp20
 70
     1
102
RTVSPropertyOp21
 70
     1
102
RTVSPropertyOp22
 70
     1
102
RTVSPropertyOp23
 70
     1
102
RTVSPropertyOp24
 70
     1
102
RTVSPropertyOp25
 70
     1
102
RTVSPropertyOp26
 70
     1
102
RTVSPropertyOp27
 70
     1
102
RTVSPropertyOp28
 70
     1
102
RTVSPropertyOp29
 70
     1
102
RTVSPropertyOp30
 70
     1
102
RTVSPropertyOp31
 70
     1
102
RTVSPropertyOp32
 70
     1
102
RTVSPropertyOp33
 70
     1
102
RTVSPropertyOp34
 70
     1
102
RTVSPropertyOp35
 70
     1
102
RTVSPropertyOp36
 70
     1
102
RTVSPropertyOp37
 70
     1
102
RTVSPropertyOp38
 70
     1
102
RTVSPropertyOp39
 70
     1
102
RTVSPropertyOp40
 70
     1
102
RTVSPropertyOp41
 70
     1
102
RTVSPropertyOp42
 70
     1
102
RTVSPropertyOp43
 70
     1
102
RTVSPropertyOp44
 70
     1
102
RTVSPropertyOp45
 70
     1
102
RTVSPropertyOp46
 70
     1
102
RTVSPropertyOp47
 70
     1
102
RTVSPropertyOp48
 70
     1
102
RTVSPropertyOp49
 70
     1
102
RTVSPropertyOp50
 70
     1
102
RTVSPropertyOp51
 70
     0
102
RTVSPropertyOp52
 70
     0
102
RTVSPropertyOp53
 70
     1
102
RTVSPropertyOp54
 70
     1
102
RTVSPropertyOp55
 70
     1
102
RTVSPropertyOp56
 70
     1
102
RTVSPropertyOp57
 70
     1
102
RTVSPost2010Prop28
280
     0
102
RTVSPost2010PropOp28
 70
     1
102
RTVSPost2010Prop29
280
     1
102
RTVSPost2010PropOp29
 70
     1
102
RTVSPost2010Prop30
280
     1
102
RTVSPost2010PropOp30
 70
     1
102
RTVSPost2010Prop31
280
     0
102
RTVSPost2010PropOp31
 70
     1
102
RTVSPost2010Prop32
280
     0
102
RTVSPost2010PropOp32
 70
     1
102
RTVSPost2010Prop33
280
     0
102
RTVSPost2010PropOp33
 70
     1
102
RTVSPost2010Prop34
280
     0
102
RTVSPost2010PropOp34
 70
     1
102
RTVSPost2010Prop35
280
     0
102
RTVSPost2010PropOp35
 70
     1
102
RTVSPost2010Prop36
280
     0
102
RTVSPost2010PropOp36
 70
     1
102
RTVSPost2010Prop37
 90
       50
102
RTVSPost2010PropOp37
 70
     1
102
RTVSPost2010Prop38
140
0.0
102
RTVSPost2010PropOp38
 70
     1
102
RTVSPost2010Prop39
140
1.0
102
RTVSPost2010PropOp39
 70
     1
102
RTVSPost2010Prop40
 90
        0
102
RTVSPost2010PropOp40
 70
     1
102
RTVSPost2010Prop41ColorIndex
 90
       18
102
RTVSPost2010Prop41ColorRGB
 90
        0
102
RTVSPost2010PropOp41
 70
     1
102
RTVSPost2010Prop42
 90
       50
102
RTVSPost2010PropOp42
 70
     1
102
RTVSPost2010Prop43
 90
        3
102
RTVSPost2010PropOp43
 70
     1
102
RTVSPost2010Prop44ColorIndex
 90
        5
102
RTVSPost2010Prop44ColorRGB
 90
      255
102
RTVSPost2010PropOp44
 70
     1
102
RTVSPost2010Prop45
280
     0
102
RTVSPost2010PropOp45
 70
     1
102
RTVSPost2010Prop46
 90
       50
102
RTVSPost2010PropOp46
 70
     1
102
RTVSPost2010Prop47
 90
       50
102
RTVSPost2010PropOp47
 70
     1
102
RTVSPost2010Prop48
 90
       50
102
RTVSPost2010PropOp48
 70
     1
102
RTVSPost2010Prop49
280
     0
102
RTVSPost2010PropOp49
 70
     1
102
RTVSPost2010Prop50
 90
       50
102
RTVSPost2010PropOp50
 70
     1
102
RTVSPost2010Prop51ColorIndex
 90
      256
102
RTVSPost2010Prop51ColorRGB
 90
-16777216
102
RTVSPost2010PropOp51
 70
     0
102
RTVSPost2010Prop52
140
1.0
102
RTVSPost2010PropOp52
 70
     0
102
RTVSPost2010Prop53
 90
        2
102
RTVSPost2010PropOp53
 70
     1
102
RTVSPost2010Prop54
  1
strokes_ogs.tif
102
RTVSPost2010PropOp54
 70
     1
102
RTVSPost2010Prop55
280
     0
102
RTVSPost2010PropOp55
 70
     1
102
RTVSPost2010Prop56
140
1.0
102
RTVSPost2010PropOp56
 70
     1
102
RTVSPost2010Prop57
140
1.0
102
RTVSPost2010PropOp57
 70
     1
  0
XRECORD
  5
25D4
102
{ACAD_REACTORS
330
25D3
102
}
330
25D3
100
AcDbXrecord
280
     1
102
RTVSPropertyOp0
 70
     1
102
RTVSPropertyOp1
 70
     1
102
RTVSPropertyOp2
 70
     1
102
RTVSPropertyOp3
 70
     1
102
RTVSPropertyOp4
 70
     1
102
RTVSPropertyOp5
 70
     1
102
RTVSPropertyOp6
 70
     1
102
RTVSPropertyOp7
 70
     1
102
RTVSPropertyOp8
 70
     1
102
RTVSPropertyOp9
 70
     1
102
RTVSPropertyOp10
 70
     1
102
RTVSPropertyOp11
 70
     1
102
RTVSPropertyOp12
 70
     1
102
RTVSPropertyOp13
 70
     1
102
RTVSPropertyOp14
 70
     1
102
RTVSPropertyOp15
 70
     1
102
RTVSPropertyOp16
 70
     1
102
RTVSPropertyOp17
 70
     1
102
RTVSPropertyOp18
 70
     1
102
RTVSPropertyOp19
 70
     1
102
RTVSPropertyOp20
 70
     1
102
RTVSPropertyOp21
 70
     1
102
RTVSPropertyOp22
 70
     1
102
RTVSPropertyOp23
 70
     1
102
RTVSPropertyOp24
 70
     1
102
RTVSPropertyOp25
 70
     1
102
RTVSPropertyOp26
 70
     1
102
RTVSPropertyOp27
 70
     1
102
RTVSPropertyOp28
 70
     1
102
RTVSPropertyOp29
 70
     1
102
RTVSPropertyOp30
 70
     1
102
RTVSPropertyOp31
 70
     1
102
RTVSPropertyOp32
 70
     1
102
RTVSPropertyOp33
 70
     1
102
RTVSPropertyOp34
 70
     1
102
RTVSPropertyOp35
 70
     1
102
RTVSPropertyOp36
 70
     1
102
RTVSPropertyOp37
 70
     1
102
RTVSPropertyOp38
 70
     1
102
RTVSPropertyOp39
 70
     1
102
RTVSPropertyOp40
 70
     1
102
RTVSPropertyOp41
 70
     1
102
RTVSPropertyOp42
 70
     1
102
RTVSPropertyOp43
 70
     1
102
RTVSPropertyOp44
 70
     1
102
RTVSPropertyOp45
 70
     1
102
RTVSPropertyOp46
 70
     1
102
RTVSPropertyOp47
 70
     1
102
RTVSPropertyOp48
 70
     1
102
RTVSPropertyOp49
 70
     1
102
RTVSPropertyOp50
 70
     1
102
RTVSPropertyOp51
 70
     0
102
RTVSPropertyOp52
 70
     0
102
RTVSPropertyOp53
 70
     1
102
RTVSPropertyOp54
 70
     1
102
RTVSPropertyOp55
 70
     1
102
RTVSPropertyOp56
 70
     1
102
RTVSPropertyOp57
 70
     1
102
RTVSPost2010Prop28
280
     0
102
RTVSPost2010PropOp28
 70
     1
102
RTVSPost2010Prop29
280
     1
102
RTVSPost2010PropOp29
 70
     1
102
RTVSPost2010Prop30
280
     1
102
RTVSPost2010PropOp30
 70
     1
102
RTVSPost2010Prop31
280
     0
102
RTVSPost2010PropOp31
 70
     1
102
RTVSPost2010Prop32
280
     0
102
RTVSPost2010PropOp32
 70
     1
102
RTVSPost2010Prop33
280
     0
102
RTVSPost2010PropOp33
 70
     1
102
RTVSPost2010Prop34
280
     0
102
RTVSPost2010PropOp34
 70
     1
102
RTVSPost2010Prop35
280
     0
102
RTVSPost2010PropOp35
 70
     1
102
RTVSPost2010Prop36
280
     0
102
RTVSPost2010PropOp36
 70
     1
102
RTVSPost2010Prop37
 90
       50
102
RTVSPost2010PropOp37
 70
     1
102
RTVSPost2010Prop38
140
0.0
102
RTVSPost2010PropOp38
 70
     1
102
RTVSPost2010Prop39
140
1.0
102
RTVSPost2010PropOp39
 70
     1
102
RTVSPost2010Prop40
 90
        0
102
RTVSPost2010PropOp40
 70
     1
102
RTVSPost2010Prop41ColorIndex
 90
       18
102
RTVSPost2010Prop41ColorRGB
 90
        0
102
RTVSPost2010PropOp41
 70
     1
102
RTVSPost2010Prop42
 90
       50
102
RTVSPost2010PropOp42
 70
     1
102
RTVSPost2010Prop43
 90
        3
102
RTVSPost2010PropOp43
 70
     1
102
RTVSPost2010Prop44ColorIndex
 90
        5
102
RTVSPost2010Prop44ColorRGB
 90
      255
102
RTVSPost2010PropOp44
 70
     1
102
RTVSPost2010Prop45
280
     0
102
RTVSPost2010PropOp45
 70
     1
102
RTVSPost2010Prop46
 90
       50
102
RTVSPost2010PropOp46
 70
     1
102
RTVSPost2010Prop47
 90
       50
102
RTVSPost2010PropOp47
 70
     1
102
RTVSPost2010Prop48
 90
       50
102
RTVSPost2010PropOp48
 70
     1
102
RTVSPost2010Prop49
280
     0
102
RTVSPost2010PropOp49
 70
     1
102
RTVSPost2010Prop50
 90
       50
102
RTVSPost2010PropOp50
 70
     1
102
RTVSPost2010Prop51ColorIndex
 90
      256
102
RTVSPost2010Prop51ColorRGB
 90
-16777216
102
RTVSPost2010PropOp51
 70
     0
102
RTVSPost2010Prop52
140
1.0
102
RTVSPost2010PropOp52
 70
     0
102
RTVSPost2010Prop53
 90
        2
102
RTVSPost2010PropOp53
 70
     1
102
RTVSPost2010Prop54
  1
strokes_ogs.tif
102
RTVSPost2010PropOp54
 70
     1
102
RTVSPost2010Prop55
280
     0
102
RTVSPost2010PropOp55
 70
     1
102
RTVSPost2010Prop56
140
1.0
102
RTVSPost2010PropOp56
 70
     1
102
RTVSPost2010Prop57
140
1.0
102
RTVSPost2010PropOp57
 70
     1
  0
XRECORD
  5
25E8
102
{ACAD_REACTORS
330
25E7
102
}
330
25E7
100
AcDbXrecord
280
     1
102
RTVSPropertyOp0
 70
     0
102
RTVSPropertyOp1
 70
     0
102
RTVSPropertyOp2
 70
     0
102
RTVSPropertyOp3
 70
     0
102
RTVSPropertyOp4
 70
     0
102
RTVSPropertyOp5
 70
     0
102
RTVSPropertyOp6
 70
     0
102
RTVSPropertyOp7
 70
     0
102
RTVSPropertyOp8
 70
     0
102
RTVSPropertyOp9
 70
     0
102
RTVSPropertyOp10
 70
     0
102
RTVSPropertyOp11
 70
     0
102
RTVSPropertyOp12
 70
     0
102
RTVSPropertyOp13
 70
     0
102
RTVSPropertyOp14
 70
     0
102
RTVSPropertyOp15
 70
     0
102
RTVSPropertyOp16
 70
     0
102
RTVSPropertyOp17
 70
     0
102
RTVSPropertyOp18
 70
     0
102
RTVSPropertyOp19
 70
     0
102
RTVSPropertyOp20
 70
     0
102
RTVSPropertyOp21
 70
     0
102
RTVSPropertyOp22
 70
     0
102
RTVSPropertyOp23
 70
     0
102
RTVSPropertyOp24
 70
     0
102
RTVSPropertyOp25
 70
     0
102
RTVSPropertyOp26
 70
     0
102
RTVSPropertyOp27
 70
     0
102
RTVSPropertyOp28
 70
     1
102
RTVSPropertyOp29
 70
     1
102
RTVSPropertyOp30
 70
     1
102
RTVSPropertyOp31
 70
     1
102
RTVSPropertyOp32
 70
     1
102
RTVSPropertyOp33
 70
     1
102
RTVSPropertyOp34
 70
     1
102
RTVSPropertyOp35
 70
     1
102
RTVSPropertyOp36
 70
     1
102
RTVSPropertyOp37
 70
     1
102
RTVSPropertyOp38
 70
     1
102
RTVSPropertyOp39
 70
     1
102
RTVSPropertyOp40
 70
     1
102
RTVSPropertyOp41
 70
     1
102
RTVSPropertyOp42
 70
     1
102
RTVSPropertyOp43
 70
     1
102
RTVSPropertyOp44
 70
     1
102
RTVSPropertyOp45
 70
     1
102
RTVSPropertyOp46
 70
     1
102
RTVSPropertyOp47
 70
     1
102
RTVSPropertyOp48
 70
     1
102
RTVSPropertyOp49
 70
     1
102
RTVSPropertyOp50
 70
     1
102
RTVSPropertyOp51
 70
     0
102
RTVSPropertyOp52
 70
     0
102
RTVSPropertyOp53
 70
     1
102
RTVSPropertyOp54
 70
     1
102
RTVSPropertyOp55
 70
     1
102
RTVSPropertyOp56
 70
     1
102
RTVSPropertyOp57
 70
     1
102
RTVSPost2010Prop28
280
     0
102
RTVSPost2010PropOp28
 70
     1
102
RTVSPost2010Prop29
280
     1
102
RTVSPost2010PropOp29
 70
     1
102
RTVSPost2010Prop30
280
     1
102
RTVSPost2010PropOp30
 70
     1
102
RTVSPost2010Prop31
280
     0
102
RTVSPost2010PropOp31
 70
     1
102
RTVSPost2010Prop32
280
     0
102
RTVSPost2010PropOp32
 70
     1
102
RTVSPost2010Prop33
280
     0
102
RTVSPost2010PropOp33
 70
     1
102
RTVSPost2010Prop34
280
     0
102
RTVSPost2010PropOp34
 70
     1
102
RTVSPost2010Prop35
280
     0
102
RTVSPost2010PropOp35
 70
     1
102
RTVSPost2010Prop36
280
     0
102
RTVSPost2010PropOp36
 70
     1
102
RTVSPost2010Prop37
 90
       50
102
RTVSPost2010PropOp37
 70
     1
102
RTVSPost2010Prop38
140
0.0
102
RTVSPost2010PropOp38
 70
     1
102
RTVSPost2010Prop39
140
1.0
102
RTVSPost2010PropOp39
 70
     1
102
RTVSPost2010Prop40
 90
        0
102
RTVSPost2010PropOp40
 70
     1
102
RTVSPost2010Prop41ColorIndex
 90
       18
102
RTVSPost2010Prop41ColorRGB
 90
        0
102
RTVSPost2010PropOp41
 70
     1
102
RTVSPost2010Prop42
 90
       50
102
RTVSPost2010PropOp42
 70
     1
102
RTVSPost2010Prop43
 90
        3
102
RTVSPost2010PropOp43
 70
     1
102
RTVSPost2010Prop44ColorIndex
 90
        5
102
RTVSPost2010Prop44ColorRGB
 90
      255
102
RTVSPost2010PropOp44
 70
     1
102
RTVSPost2010Prop45
280
     0
102
RTVSPost2010PropOp45
 70
     1
102
RTVSPost2010Prop46
 90
       50
102
RTVSPost2010PropOp46
 70
     1
102
RTVSPost2010Prop47
 90
       50
102
RTVSPost2010PropOp47
 70
     1
102
RTVSPost2010Prop48
 90
       50
102
RTVSPost2010PropOp48
 70
     1
102
RTVSPost2010Prop49
280
     0
102
RTVSPost2010PropOp49
 70
     1
102
RTVSPost2010Prop50
 90
       50
102
RTVSPost2010PropOp50
 70
     1
102
RTVSPost2010Prop51ColorIndex
 90
      256
102
RTVSPost2010Prop51ColorRGB
 90
-16777216
102
RTVSPost2010PropOp51
 70
     0
102
RTVSPost2010Prop52
140
1.0
102
RTVSPost2010PropOp52
 70
     0
102
RTVSPost2010Prop53
 90
        2
102
RTVSPost2010PropOp53
 70
     1
102
RTVSPost2010Prop54
  1
strokes_ogs.tif
102
RTVSPost2010PropOp54
 70
     1
102
RTVSPost2010Prop55
280
     0
102
RTVSPost2010PropOp55
 70
     1
102
RTVSPost2010Prop56
140
1.0
102
RTVSPost2010PropOp56
 70
     1
102
RTVSPost2010Prop57
140
1.0
102
RTVSPost2010PropOp57
 70
     1
  0
XRECORD
  5
25DC
102
{ACAD_REACTORS
330
25DB
102
}
330
25DB
100
AcDbXrecord
280
     1
102
RTVSPropertyOp0
 70
     1
102
RTVSPropertyOp1
 70
     1
102
RTVSPropertyOp2
 70
     1
102
RTVSPropertyOp3
 70
     1
102
RTVSPropertyOp4
 70
     1
102
RTVSPropertyOp5
 70
     1
102
RTVSPropertyOp6
 70
     1
102
RTVSPropertyOp7
 70
     1
102
RTVSPropertyOp8
 70
     1
102
RTVSPropertyOp9
 70
     1
102
RTVSPropertyOp10
 70
     1
102
RTVSPropertyOp11
 70
     1
102
RTVSPropertyOp12
 70
     1
102
RTVSPropertyOp13
 70
     1
102
RTVSPropertyOp14
 70
     1
102
RTVSPropertyOp15
 70
     1
102
RTVSPropertyOp16
 70
     1
102
RTVSPropertyOp17
 70
     1
102
RTVSPropertyOp18
 70
     1
102
RTVSPropertyOp19
 70
     1
102
RTVSPropertyOp20
 70
     1
102
RTVSPropertyOp21
 70
     1
102
RTVSPropertyOp22
 70
     1
102
RTVSPropertyOp23
 70
     1
102
RTVSPropertyOp24
 70
     1
102
RTVSPropertyOp25
 70
     1
102
RTVSPropertyOp26
 70
     1
102
RTVSPropertyOp27
 70
     1
102
RTVSPropertyOp28
 70
     1
102
RTVSPropertyOp29
 70
     1
102
RTVSPropertyOp30
 70
     1
102
RTVSPropertyOp31
 70
     1
102
RTVSPropertyOp32
 70
     1
102
RTVSPropertyOp33
 70
     1
102
RTVSPropertyOp34
 70
     1
102
RTVSPropertyOp35
 70
     1
102
RTVSPropertyOp36
 70
     1
102
RTVSPropertyOp37
 70
     1
102
RTVSPropertyOp38
 70
     1
102
RTVSPropertyOp39
 70
     1
102
RTVSPropertyOp40
 70
     1
102
RTVSPropertyOp41
 70
     1
102
RTVSPropertyOp42
 70
     1
102
RTVSPropertyOp43
 70
     1
102
RTVSPropertyOp44
 70
     1
102
RTVSPropertyOp45
 70
     1
102
RTVSPropertyOp46
 70
     1
102
RTVSPropertyOp47
 70
     1
102
RTVSPropertyOp48
 70
     1
102
RTVSPropertyOp49
 70
     1
102
RTVSPropertyOp50
 70
     1
102
RTVSPropertyOp51
 70
     0
102
RTVSPropertyOp52
 70
     0
102
RTVSPropertyOp53
 70
     1
102
RTVSPropertyOp54
 70
     1
102
RTVSPropertyOp55
 70
     1
102
RTVSPropertyOp56
 70
     1
102
RTVSPropertyOp57
 70
     1
102
RTVSPost2010Prop28
280
     0
102
RTVSPost2010PropOp28
 70
     1
102
RTVSPost2010Prop29
280
     1
102
RTVSPost2010PropOp29
 70
     1
102
RTVSPost2010Prop30
280
     1
102
RTVSPost2010PropOp30
 70
     1
102
RTVSPost2010Prop31
280
     0
102
RTVSPost2010PropOp31
 70
     1
102
RTVSPost2010Prop32
280
     0
102
RTVSPost2010PropOp32
 70
     1
102
RTVSPost2010Prop33
280
     0
102
RTVSPost2010PropOp33
 70
     1
102
RTVSPost2010Prop34
280
     0
102
RTVSPost2010PropOp34
 70
     1
102
RTVSPost2010Prop35
280
     0
102
RTVSPost2010PropOp35
 70
     1
102
RTVSPost2010Prop36
280
     0
102
RTVSPost2010PropOp36
 70
     1
102
RTVSPost2010Prop37
 90
       50
102
RTVSPost2010PropOp37
 70
     1
102
RTVSPost2010Prop38
140
0.0
102
RTVSPost2010PropOp38
 70
     1
102
RTVSPost2010Prop39
140
1.0
102
RTVSPost2010PropOp39
 70
     1
102
RTVSPost2010Prop40
 90
        0
102
RTVSPost2010PropOp40
 70
     1
102
RTVSPost2010Prop41ColorIndex
 90
       18
102
RTVSPost2010Prop41ColorRGB
 90
        0
102
RTVSPost2010PropOp41
 70
     1
102
RTVSPost2010Prop42
 90
       50
102
RTVSPost2010PropOp42
 70
     1
102
RTVSPost2010Prop43
 90
        3
102
RTVSPost2010PropOp43
 70
     1
102
RTVSPost2010Prop44ColorIndex
 90
        5
102
RTVSPost2010Prop44ColorRGB
 90
      255
102
RTVSPost2010PropOp44
 70
     1
102
RTVSPost2010Prop45
280
     0
102
RTVSPost2010PropOp45
 70
     1
102
RTVSPost2010Prop46
 90
       50
102
RTVSPost2010PropOp46
 70
     1
102
RTVSPost2010Prop47
 90
       50
102
RTVSPost2010PropOp47
 70
     1
102
RTVSPost2010Prop48
 90
       50
102
RTVSPost2010PropOp48
 70
     1
102
RTVSPost2010Prop49
280
     0
102
RTVSPost2010PropOp49
 70
     1
102
RTVSPost2010Prop50
 90
       50
102
RTVSPost2010PropOp50
 70
     1
102
RTVSPost2010Prop51ColorIndex
 90
      256
102
RTVSPost2010Prop51ColorRGB
 90
-16777216
102
RTVSPost2010PropOp51
 70
     0
102
RTVSPost2010Prop52
140
1.0
102
RTVSPost2010PropOp52
 70
     0
102
RTVSPost2010Prop53
 90
        2
102
RTVSPost2010PropOp53
 70
     1
102
RTVSPost2010Prop54
  1
strokes_ogs.tif
102
RTVSPost2010PropOp54
 70
     1
102
RTVSPost2010Prop55
280
     0
102
RTVSPost2010PropOp55
 70
     1
102
RTVSPost2010Prop56
140
1.0
102
RTVSPost2010PropOp56
 70
     1
102
RTVSPost2010Prop57
140
1.0
102
RTVSPost2010PropOp57
 70
     1
  0
XRECORD
  5
25C0
102
{ACAD_REACTORS
330
25BF
102
}
330
25BF
100
AcDbXrecord
280
     1
102
RTVSPropertyOp0
 70
     1
102
RTVSPropertyOp1
 70
     1
102
RTVSPropertyOp2
 70
     1
102
RTVSPropertyOp3
 70
     1
102
RTVSPropertyOp4
 70
     1
102
RTVSPropertyOp5
 70
     1
102
RTVSPropertyOp6
 70
     1
102
RTVSPropertyOp7
 70
     1
102
RTVSPropertyOp8
 70
     1
102
RTVSPropertyOp9
 70
     1
102
RTVSPropertyOp10
 70
     1
102
RTVSPropertyOp11
 70
     1
102
RTVSPropertyOp12
 70
     1
102
RTVSPropertyOp13
 70
     1
102
RTVSPropertyOp14
 70
     1
102
RTVSPropertyOp15
 70
     1
102
RTVSPropertyOp16
 70
     1
102
RTVSPropertyOp17
 70
     1
102
RTVSPropertyOp18
 70
     1
102
RTVSPropertyOp19
 70
     1
102
RTVSPropertyOp20
 70
     1
102
RTVSPropertyOp21
 70
     1
102
RTVSPropertyOp22
 70
     1
102
RTVSPropertyOp23
 70
     1
102
RTVSPropertyOp24
 70
     1
102
RTVSPropertyOp25
 70
     1
102
RTVSPropertyOp26
 70
     1
102
RTVSPropertyOp27
 70
     1
102
RTVSPropertyOp28
 70
     1
102
RTVSPropertyOp29
 70
     1
102
RTVSPropertyOp30
 70
     1
102
RTVSPropertyOp31
 70
     1
102
RTVSPropertyOp32
 70
     1
102
RTVSPropertyOp33
 70
     1
102
RTVSPropertyOp34
 70
     1
102
RTVSPropertyOp35
 70
     1
102
RTVSPropertyOp36
 70
     1
102
RTVSPropertyOp37
 70
     1
102
RTVSPropertyOp38
 70
     1
102
RTVSPropertyOp39
 70
     1
102
RTVSPropertyOp40
 70
     1
102
RTVSPropertyOp41
 70
     1
102
RTVSPropertyOp42
 70
     1
102
RTVSPropertyOp43
 70
     1
102
RTVSPropertyOp44
 70
     1
102
RTVSPropertyOp45
 70
     1
102
RTVSPropertyOp46
 70
     1
102
RTVSPropertyOp47
 70
     1
102
RTVSPropertyOp48
 70
     1
102
RTVSPropertyOp49
 70
     1
102
RTVSPropertyOp50
 70
     1
102
RTVSPropertyOp51
 70
     0
102
RTVSPropertyOp52
 70
     0
102
RTVSPropertyOp53
 70
     1
102
RTVSPropertyOp54
 70
     1
102
RTVSPropertyOp55
 70
     1
102
RTVSPropertyOp56
 70
     1
102
RTVSPropertyOp57
 70
     1
102
RTVSPost2010Prop28
280
     0
102
RTVSPost2010PropOp28
 70
     1
102
RTVSPost2010Prop29
280
     1
102
RTVSPost2010PropOp29
 70
     1
102
RTVSPost2010Prop30
280
     1
102
RTVSPost2010PropOp30
 70
     1
102
RTVSPost2010Prop31
280
     0
102
RTVSPost2010PropOp31
 70
     1
102
RTVSPost2010Prop32
280
     0
102
RTVSPost2010PropOp32
 70
     1
102
RTVSPost2010Prop33
280
     0
102
RTVSPost2010PropOp33
 70
     1
102
RTVSPost2010Prop34
280
     0
102
RTVSPost2010PropOp34
 70
     1
102
RTVSPost2010Prop35
280
     0
102
RTVSPost2010PropOp35
 70
     1
102
RTVSPost2010Prop36
280
     0
102
RTVSPost2010PropOp36
 70
     1
102
RTVSPost2010Prop37
 90
       50
102
RTVSPost2010PropOp37
 70
     1
102
RTVSPost2010Prop38
140
0.0
102
RTVSPost2010PropOp38
 70
     1
102
RTVSPost2010Prop39
140
1.0
102
RTVSPost2010PropOp39
 70
     1
102
RTVSPost2010Prop40
 90
        0
102
RTVSPost2010PropOp40
 70
     1
102
RTVSPost2010Prop41ColorIndex
 90
       18
102
RTVSPost2010Prop41ColorRGB
 90
        0
102
RTVSPost2010PropOp41
 70
     1
102
RTVSPost2010Prop42
 90
       50
102
RTVSPost2010PropOp42
 70
     1
102
RTVSPost2010Prop43
 90
        3
102
RTVSPost2010PropOp43
 70
     1
102
RTVSPost2010Prop44ColorIndex
 90
        5
102
RTVSPost2010Prop44ColorRGB
 90
      255
102
RTVSPost2010PropOp44
 70
     1
102
RTVSPost2010Prop45
280
     0
102
RTVSPost2010PropOp45
 70
     1
102
RTVSPost2010Prop46
 90
       50
102
RTVSPost2010PropOp46
 70
     1
102
RTVSPost2010Prop47
 90
       50
102
RTVSPost2010PropOp47
 70
     1
102
RTVSPost2010Prop48
 90
       50
102
RTVSPost2010PropOp48
 70
     1
102
RTVSPost2010Prop49
280
     0
102
RTVSPost2010PropOp49
 70
     1
102
RTVSPost2010Prop50
 90
       50
102
RTVSPost2010PropOp50
 70
     1
102
RTVSPost2010Prop51ColorIndex
 90
      256
102
RTVSPost2010Prop51ColorRGB
 90
-16777216
102
RTVSPost2010PropOp51
 70
     0
102
RTVSPost2010Prop52
140
1.0
102
RTVSPost2010PropOp52
 70
     0
102
RTVSPost2010Prop53
 90
        2
102
RTVSPost2010PropOp53
 70
     1
102
RTVSPost2010Prop54
  1
strokes_ogs.tif
102
RTVSPost2010PropOp54
 70
     1
102
RTVSPost2010Prop55
280
     0
102
RTVSPost2010PropOp55
 70
     1
102
RTVSPost2010Prop56
140
1.0
102
RTVSPost2010PropOp56
 70
     1
102
RTVSPost2010Prop57
140
1.0
102
RTVSPost2010PropOp57
 70
     1
  0
XRECORD
  5
25C2
102
{ACAD_REACTORS
330
25C1
102
}
330
25C1
100
AcDbXrecord
280
     1
102
RTVSPropertyOp0
 70
     1
102
RTVSPropertyOp1
 70
     1
102
RTVSPropertyOp2
 70
     1
102
RTVSPropertyOp3
 70
     1
102
RTVSPropertyOp4
 70
     1
102
RTVSPropertyOp5
 70
     1
102
RTVSPropertyOp6
 70
     1
102
RTVSPropertyOp7
 70
     1
102
RTVSPropertyOp8
 70
     1
102
RTVSPropertyOp9
 70
     1
102
RTVSPropertyOp10
 70
     1
102
RTVSPropertyOp11
 70
     1
102
RTVSPropertyOp12
 70
     1
102
RTVSPropertyOp13
 70
     1
102
RTVSPropertyOp14
 70
     1
102
RTVSPropertyOp15
 70
     1
102
RTVSPropertyOp16
 70
     1
102
RTVSPropertyOp17
 70
     1
102
RTVSPropertyOp18
 70
     1
102
RTVSPropertyOp19
 70
     1
102
RTVSPropertyOp20
 70
     1
102
RTVSPropertyOp21
 70
     1
102
RTVSPropertyOp22
 70
     1
102
RTVSPropertyOp23
 70
     1
102
RTVSPropertyOp24
 70
     1
102
RTVSPropertyOp25
 70
     1
102
RTVSPropertyOp26
 70
     1
102
RTVSPropertyOp27
 70
     1
102
RTVSPropertyOp28
 70
     1
102
RTVSPropertyOp29
 70
     1
102
RTVSPropertyOp30
 70
     1
102
RTVSPropertyOp31
 70
     1
102
RTVSPropertyOp32
 70
     1
102
RTVSPropertyOp33
 70
     1
102
RTVSPropertyOp34
 70
     1
102
RTVSPropertyOp35
 70
     1
102
RTVSPropertyOp36
 70
     1
102
RTVSPropertyOp37
 70
     1
102
RTVSPropertyOp38
 70
     1
102
RTVSPropertyOp39
 70
     1
102
RTVSPropertyOp40
 70
     1
102
RTVSPropertyOp41
 70
     1
102
RTVSPropertyOp42
 70
     1
102
RTVSPropertyOp43
 70
     1
102
RTVSPropertyOp44
 70
     1
102
RTVSPropertyOp45
 70
     1
102
RTVSPropertyOp46
 70
     1
102
RTVSPropertyOp47
 70
     1
102
RTVSPropertyOp48
 70
     1
102
RTVSPropertyOp49
 70
     1
102
RTVSPropertyOp50
 70
     1
102
RTVSPropertyOp51
 70
     0
102
RTVSPropertyOp52
 70
     0
102
RTVSPropertyOp53
 70
     1
102
RTVSPropertyOp54
 70
     1
102
RTVSPropertyOp55
 70
     1
102
RTVSPropertyOp56
 70
     1
102
RTVSPropertyOp57
 70
     1
102
RTVSPost2010Prop28
280
     0
102
RTVSPost2010PropOp28
 70
     1
102
RTVSPost2010Prop29
280
     1
102
RTVSPost2010PropOp29
 70
     1
102
RTVSPost2010Prop30
280
     1
102
RTVSPost2010PropOp30
 70
     1
102
RTVSPost2010Prop31
280
     0
102
RTVSPost2010PropOp31
 70
     1
102
RTVSPost2010Prop32
280
     0
102
RTVSPost2010PropOp32
 70
     1
102
RTVSPost2010Prop33
280
     0
102
RTVSPost2010PropOp33
 70
     1
102
RTVSPost2010Prop34
280
     0
102
RTVSPost2010PropOp34
 70
     1
102
RTVSPost2010Prop35
280
     0
102
RTVSPost2010PropOp35
 70
     1
102
RTVSPost2010Prop36
280
     0
102
RTVSPost2010PropOp36
 70
     1
102
RTVSPost2010Prop37
 90
       50
102
RTVSPost2010PropOp37
 70
     1
102
RTVSPost2010Prop38
140
0.0
102
RTVSPost2010PropOp38
 70
     1
102
RTVSPost2010Prop39
140
1.0
102
RTVSPost2010PropOp39
 70
     1
102
RTVSPost2010Prop40
 90
        0
102
RTVSPost2010PropOp40
 70
     1
102
RTVSPost2010Prop41ColorIndex
 90
       18
102
RTVSPost2010Prop41ColorRGB
 90
        0
102
RTVSPost2010PropOp41
 70
     1
102
RTVSPost2010Prop42
 90
       50
102
RTVSPost2010PropOp42
 70
     1
102
RTVSPost2010Prop43
 90
        3
102
RTVSPost2010PropOp43
 70
     1
102
RTVSPost2010Prop44ColorIndex
 90
        5
102
RTVSPost2010Prop44ColorRGB
 90
      255
102
RTVSPost2010PropOp44
 70
     1
102
RTVSPost2010Prop45
280
     0
102
RTVSPost2010PropOp45
 70
     1
102
RTVSPost2010Prop46
 90
       50
102
RTVSPost2010PropOp46
 70
     1
102
RTVSPost2010Prop47
 90
       50
102
RTVSPost2010PropOp47
 70
     1
102
RTVSPost2010Prop48
 90
       50
102
RTVSPost2010PropOp48
 70
     1
102
RTVSPost2010Prop49
280
     0
102
RTVSPost2010PropOp49
 70
     1
102
RTVSPost2010Prop50
 90
       50
102
RTVSPost2010PropOp50
 70
     1
102
RTVSPost2010Prop51ColorIndex
 90
      256
102
RTVSPost2010Prop51ColorRGB
 90
-16777216
102
RTVSPost2010PropOp51
 70
     0
102
RTVSPost2010Prop52
140
1.0
102
RTVSPost2010PropOp52
 70
     0
102
RTVSPost2010Prop53
 90
        2
102
RTVSPost2010PropOp53
 70
     1
102
RTVSPost2010Prop54
  1
strokes_ogs.tif
102
RTVSPost2010PropOp54
 70
     1
102
RTVSPost2010Prop55
280
     0
102
RTVSPost2010PropOp55
 70
     1
102
RTVSPost2010Prop56
140
1.0
102
RTVSPost2010PropOp56
 70
     1
102
RTVSPost2010Prop57
140
1.0
102
RTVSPost2010PropOp57
 70
     1
  0
XRECORD
  5
25C4
102
{ACAD_REACTORS
330
25C3
102
}
330
25C3
100
AcDbXrecord
280
     1
102
RTVSPropertyOp0
 70
     1
102
RTVSPropertyOp1
 70
     1
102
RTVSPropertyOp2
 70
     1
102
RTVSPropertyOp3
 70
     1
102
RTVSPropertyOp4
 70
     1
102
RTVSPropertyOp5
 70
     1
102
RTVSPropertyOp6
 70
     1
102
RTVSPropertyOp7
 70
     1
102
RTVSPropertyOp8
 70
     1
102
RTVSPropertyOp9
 70
     1
102
RTVSPropertyOp10
 70
     1
102
RTVSPropertyOp11
 70
     1
102
RTVSPropertyOp12
 70
     1
102
RTVSPropertyOp13
 70
     1
102
RTVSPropertyOp14
 70
     1
102
RTVSPropertyOp15
 70
     1
102
RTVSPropertyOp16
 70
     1
102
RTVSPropertyOp17
 70
     1
102
RTVSPropertyOp18
 70
     1
102
RTVSPropertyOp19
 70
     1
102
RTVSPropertyOp20
 70
     1
102
RTVSPropertyOp21
 70
     1
102
RTVSPropertyOp22
 70
     1
102
RTVSPropertyOp23
 70
     1
102
RTVSPropertyOp24
 70
     1
102
RTVSPropertyOp25
 70
     1
102
RTVSPropertyOp26
 70
     1
102
RTVSPropertyOp27
 70
     1
102
RTVSPropertyOp28
 70
     1
102
RTVSPropertyOp29
 70
     1
102
RTVSPropertyOp30
 70
     1
102
RTVSPropertyOp31
 70
     1
102
RTVSPropertyOp32
 70
     1
102
RTVSPropertyOp33
 70
     1
102
RTVSPropertyOp34
 70
     1
102
RTVSPropertyOp35
 70
     1
102
RTVSPropertyOp36
 70
     1
102
RTVSPropertyOp37
 70
     1
102
RTVSPropertyOp38
 70
     1
102
RTVSPropertyOp39
 70
     1
102
RTVSPropertyOp40
 70
     1
102
RTVSPropertyOp41
 70
     1
102
RTVSPropertyOp42
 70
     1
102
RTVSPropertyOp43
 70
     1
102
RTVSPropertyOp44
 70
     1
102
RTVSPropertyOp45
 70
     1
102
RTVSPropertyOp46
 70
     1
102
RTVSPropertyOp47
 70
     1
102
RTVSPropertyOp48
 70
     1
102
RTVSPropertyOp49
 70
     1
102
RTVSPropertyOp50
 70
     1
102
RTVSPropertyOp51
 70
     0
102
RTVSPropertyOp52
 70
     0
102
RTVSPropertyOp53
 70
     1
102
RTVSPropertyOp54
 70
     1
102
RTVSPropertyOp55
 70
     1
102
RTVSPropertyOp56
 70
     1
102
RTVSPropertyOp57
 70
     1
102
RTVSPost2010Prop28
280
     0
102
RTVSPost2010PropOp28
 70
     1
102
RTVSPost2010Prop29
280
     1
102
RTVSPost2010PropOp29
 70
     1
102
RTVSPost2010Prop30
280
     1
102
RTVSPost2010PropOp30
 70
     1
102
RTVSPost2010Prop31
280
     0
102
RTVSPost2010PropOp31
 70
     1
102
RTVSPost2010Prop32
280
     0
102
RTVSPost2010PropOp32
 70
     1
102
RTVSPost2010Prop33
280
     0
102
RTVSPost2010PropOp33
 70
     1
102
RTVSPost2010Prop34
280
     0
102
RTVSPost2010PropOp34
 70
     1
102
RTVSPost2010Prop35
280
     0
102
RTVSPost2010PropOp35
 70
     1
102
RTVSPost2010Prop36
280
     0
102
RTVSPost2010PropOp36
 70
     1
102
RTVSPost2010Prop37
 90
       50
102
RTVSPost2010PropOp37
 70
     1
102
RTVSPost2010Prop38
140
0.0
102
RTVSPost2010PropOp38
 70
     1
102
RTVSPost2010Prop39
140
1.0
102
RTVSPost2010PropOp39
 70
     1
102
RTVSPost2010Prop40
 90
        0
102
RTVSPost2010PropOp40
 70
     1
102
RTVSPost2010Prop41ColorIndex
 90
       18
102
RTVSPost2010Prop41ColorRGB
 90
        0
102
RTVSPost2010PropOp41
 70
     1
102
RTVSPost2010Prop42
 90
       50
102
RTVSPost2010PropOp42
 70
     1
102
RTVSPost2010Prop43
 90
        3
102
RTVSPost2010PropOp43
 70
     1
102
RTVSPost2010Prop44ColorIndex
 90
        5
102
RTVSPost2010Prop44ColorRGB
 90
      255
102
RTVSPost2010PropOp44
 70
     1
102
RTVSPost2010Prop45
280
     0
102
RTVSPost2010PropOp45
 70
     1
102
RTVSPost2010Prop46
 90
       50
102
RTVSPost2010PropOp46
 70
     1
102
RTVSPost2010Prop47
 90
       50
102
RTVSPost2010PropOp47
 70
     1
102
RTVSPost2010Prop48
 90
       50
102
RTVSPost2010PropOp48
 70
     1
102
RTVSPost2010Prop49
280
     0
102
RTVSPost2010PropOp49
 70
     1
102
RTVSPost2010Prop50
 90
       50
102
RTVSPost2010PropOp50
 70
     1
102
RTVSPost2010Prop51ColorIndex
 90
      256
102
RTVSPost2010Prop51ColorRGB
 90
-16777216
102
RTVSPost2010PropOp51
 70
     0
102
RTVSPost2010Prop52
140
1.0
102
RTVSPost2010PropOp52
 70
     0
102
RTVSPost2010Prop53
 90
        2
102
RTVSPost2010PropOp53
 70
     1
102
RTVSPost2010Prop54
  1
strokes_ogs.tif
102
RTVSPost2010PropOp54
 70
     1
102
RTVSPost2010Prop55
280
     0
102
RTVSPost2010PropOp55
 70
     1
102
RTVSPost2010Prop56
140
1.0
102
RTVSPost2010PropOp56
 70
     1
102
RTVSPost2010Prop57
140
1.0
102
RTVSPost2010PropOp57
 70
     1
  0
XRECORD
  5
25C6
102
{ACAD_REACTORS
330
25C5
102
}
330
25C5
100
AcDbXrecord
280
     1
102
RTVSPropertyOp0
 70
     1
102
RTVSPropertyOp1
 70
     1
102
RTVSPropertyOp2
 70
     1
102
RTVSPropertyOp3
 70
     1
102
RTVSPropertyOp4
 70
     1
102
RTVSPropertyOp5
 70
     1
102
RTVSPropertyOp6
 70
     1
102
RTVSPropertyOp7
 70
     1
102
RTVSPropertyOp8
 70
     1
102
RTVSPropertyOp9
 70
     1
102
RTVSPropertyOp10
 70
     1
102
RTVSPropertyOp11
 70
     1
102
RTVSPropertyOp12
 70
     1
102
RTVSPropertyOp13
 70
     1
102
RTVSPropertyOp14
 70
     1
102
RTVSPropertyOp15
 70
     1
102
RTVSPropertyOp16
 70
     1
102
RTVSPropertyOp17
 70
     1
102
RTVSPropertyOp18
 70
     1
102
RTVSPropertyOp19
 70
     1
102
RTVSPropertyOp20
 70
     1
102
RTVSPropertyOp21
 70
     1
102
RTVSPropertyOp22
 70
     1
102
RTVSPropertyOp23
 70
     1
102
RTVSPropertyOp24
 70
     1
102
RTVSPropertyOp25
 70
     1
102
RTVSPropertyOp26
 70
     1
102
RTVSPropertyOp27
 70
     1
102
RTVSPropertyOp28
 70
     1
102
RTVSPropertyOp29
 70
     1
102
RTVSPropertyOp30
 70
     1
102
RTVSPropertyOp31
 70
     1
102
RTVSPropertyOp32
 70
     1
102
RTVSPropertyOp33
 70
     1
102
RTVSPropertyOp34
 70
     1
102
RTVSPropertyOp35
 70
     1
102
RTVSPropertyOp36
 70
     1
102
RTVSPropertyOp37
 70
     1
102
RTVSPropertyOp38
 70
     1
102
RTVSPropertyOp39
 70
     1
102
RTVSPropertyOp40
 70
     1
102
RTVSPropertyOp41
 70
     1
102
RTVSPropertyOp42
 70
     1
102
RTVSPropertyOp43
 70
     1
102
RTVSPropertyOp44
 70
     1
102
RTVSPropertyOp45
 70
     1
102
RTVSPropertyOp46
 70
     1
102
RTVSPropertyOp47
 70
     1
102
RTVSPropertyOp48
 70
     1
102
RTVSPropertyOp49
 70
     1
102
RTVSPropertyOp50
 70
     1
102
RTVSPropertyOp51
 70
     0
102
RTVSPropertyOp52
 70
     0
102
RTVSPropertyOp53
 70
     1
102
RTVSPropertyOp54
 70
     1
102
RTVSPropertyOp55
 70
     1
102
RTVSPropertyOp56
 70
     1
102
RTVSPropertyOp57
 70
     1
102
RTVSPost2010Prop28
280
     0
102
RTVSPost2010PropOp28
 70
     1
102
RTVSPost2010Prop29
280
     1
102
RTVSPost2010PropOp29
 70
     1
102
RTVSPost2010Prop30
280
     1
102
RTVSPost2010PropOp30
 70
     1
102
RTVSPost2010Prop31
280
     0
102
RTVSPost2010PropOp31
 70
     1
102
RTVSPost2010Prop32
280
     0
102
RTVSPost2010PropOp32
 70
     1
102
RTVSPost2010Prop33
280
     0
102
RTVSPost2010PropOp33
 70
     1
102
RTVSPost2010Prop34
280
     0
102
RTVSPost2010PropOp34
 70
     1
102
RTVSPost2010Prop35
280
     0
102
RTVSPost2010PropOp35
 70
     1
102
RTVSPost2010Prop36
280
     0
102
RTVSPost2010PropOp36
 70
     1
102
RTVSPost2010Prop37
 90
       50
102
RTVSPost2010PropOp37
 70
     1
102
RTVSPost2010Prop38
140
0.0
102
RTVSPost2010PropOp38
 70
     1
102
RTVSPost2010Prop39
140
1.0
102
RTVSPost2010PropOp39
 70
     1
102
RTVSPost2010Prop40
 90
        0
102
RTVSPost2010PropOp40
 70
     1
102
RTVSPost2010Prop41ColorIndex
 90
       18
102
RTVSPost2010Prop41ColorRGB
 90
        0
102
RTVSPost2010PropOp41
 70
     1
102
RTVSPost2010Prop42
 90
       50
102
RTVSPost2010PropOp42
 70
     1
102
RTVSPost2010Prop43
 90
        3
102
RTVSPost2010PropOp43
 70
     1
102
RTVSPost2010Prop44ColorIndex
 90
        5
102
RTVSPost2010Prop44ColorRGB
 90
      255
102
RTVSPost2010PropOp44
 70
     1
102
RTVSPost2010Prop45
280
     0
102
RTVSPost2010PropOp45
 70
     1
102
RTVSPost2010Prop46
 90
       50
102
RTVSPost2010PropOp46
 70
     1
102
RTVSPost2010Prop47
 90
       50
102
RTVSPost2010PropOp47
 70
     1
102
RTVSPost2010Prop48
 90
       50
102
RTVSPost2010PropOp48
 70
     1
102
RTVSPost2010Prop49
280
     0
102
RTVSPost2010PropOp49
 70
     1
102
RTVSPost2010Prop50
 90
       50
102
RTVSPost2010PropOp50
 70
     1
102
RTVSPost2010Prop51ColorIndex
 90
      256
102
RTVSPost2010Prop51ColorRGB
 90
-16777216
102
RTVSPost2010PropOp51
 70
     0
102
RTVSPost2010Prop52
140
1.0
102
RTVSPost2010PropOp52
 70
     0
102
RTVSPost2010Prop53
 90
        2
102
RTVSPost2010PropOp53
 70
     1
102
RTVSPost2010Prop54
  1
strokes_ogs.tif
102
RTVSPost2010PropOp54
 70
     1
102
RTVSPost2010Prop55
280
     0
102
RTVSPost2010PropOp55
 70
     1
102
RTVSPost2010Prop56
140
1.0
102
RTVSPost2010PropOp56
 70
     1
102
RTVSPost2010Prop57
140
1.0
102
RTVSPost2010PropOp57
 70
     1
  0
XRECORD
  5
25E2
102
{ACAD_REACTORS
330
25E1
102
}
330
25E1
100
AcDbXrecord
280
     1
102
RTVSPropertyOp0
 70
     1
102
RTVSPropertyOp1
 70
     1
102
RTVSPropertyOp2
 70
     1
102
RTVSPropertyOp3
 70
     1
102
RTVSPropertyOp4
 70
     1
102
RTVSPropertyOp5
 70
     1
102
RTVSPropertyOp6
 70
     1
102
RTVSPropertyOp7
 70
     1
102
RTVSPropertyOp8
 70
     1
102
RTVSPropertyOp9
 70
     1
102
RTVSPropertyOp10
 70
     1
102
RTVSPropertyOp11
 70
     1
102
RTVSPropertyOp12
 70
     1
102
RTVSPropertyOp13
 70
     1
102
RTVSPropertyOp14
 70
     1
102
RTVSPropertyOp15
 70
     1
102
RTVSPropertyOp16
 70
     1
102
RTVSPropertyOp17
 70
     1
102
RTVSPropertyOp18
 70
     1
102
RTVSPropertyOp19
 70
     1
102
RTVSPropertyOp20
 70
     1
102
RTVSPropertyOp21
 70
     1
102
RTVSPropertyOp22
 70
     1
102
RTVSPropertyOp23
 70
     1
102
RTVSPropertyOp24
 70
     1
102
RTVSPropertyOp25
 70
     1
102
RTVSPropertyOp26
 70
     1
102
RTVSPropertyOp27
 70
     1
102
RTVSPropertyOp28
 70
     1
102
RTVSPropertyOp29
 70
     1
102
RTVSPropertyOp30
 70
     1
102
RTVSPropertyOp31
 70
     1
102
RTVSPropertyOp32
 70
     1
102
RTVSPropertyOp33
 70
     1
102
RTVSPropertyOp34
 70
     1
102
RTVSPropertyOp35
 70
     1
102
RTVSPropertyOp36
 70
     1
102
RTVSPropertyOp37
 70
     1
102
RTVSPropertyOp38
 70
     1
102
RTVSPropertyOp39
 70
     1
102
RTVSPropertyOp40
 70
     1
102
RTVSPropertyOp41
 70
     1
102
RTVSPropertyOp42
 70
     1
102
RTVSPropertyOp43
 70
     1
102
RTVSPropertyOp44
 70
     1
102
RTVSPropertyOp45
 70
     1
102
RTVSPropertyOp46
 70
     1
102
RTVSPropertyOp47
 70
     1
102
RTVSPropertyOp48
 70
     1
102
RTVSPropertyOp49
 70
     1
102
RTVSPropertyOp50
 70
     1
102
RTVSPropertyOp51
 70
     0
102
RTVSPropertyOp52
 70
     0
102
RTVSPropertyOp53
 70
     1
102
RTVSPropertyOp54
 70
     1
102
RTVSPropertyOp55
 70
     1
102
RTVSPropertyOp56
 70
     1
102
RTVSPropertyOp57
 70
     1
102
RTVSPost2010Prop28
280
     0
102
RTVSPost2010PropOp28
 70
     1
102
RTVSPost2010Prop29
280
     1
102
RTVSPost2010PropOp29
 70
     1
102
RTVSPost2010Prop30
280
     1
102
RTVSPost2010PropOp30
 70
     1
102
RTVSPost2010Prop31
280
     0
102
RTVSPost2010PropOp31
 70
     1
102
RTVSPost2010Prop32
280
     0
102
RTVSPost2010PropOp32
 70
     1
102
RTVSPost2010Prop33
280
     0
102
RTVSPost2010PropOp33
 70
     1
102
RTVSPost2010Prop34
280
     0
102
RTVSPost2010PropOp34
 70
     1
102
RTVSPost2010Prop35
280
     0
102
RTVSPost2010PropOp35
 70
     1
102
RTVSPost2010Prop36
280
     0
102
RTVSPost2010PropOp36
 70
     1
102
RTVSPost2010Prop37
 90
       50
102
RTVSPost2010PropOp37
 70
     1
102
RTVSPost2010Prop38
140
0.0
102
RTVSPost2010PropOp38
 70
     1
102
RTVSPost2010Prop39
140
1.0
102
RTVSPost2010PropOp39
 70
     1
102
RTVSPost2010Prop40
 90
        0
102
RTVSPost2010PropOp40
 70
     1
102
RTVSPost2010Prop41ColorIndex
 90
       18
102
RTVSPost2010Prop41ColorRGB
 90
        0
102
RTVSPost2010PropOp41
 70
     1
102
RTVSPost2010Prop42
 90
       50
102
RTVSPost2010PropOp42
 70
     1
102
RTVSPost2010Prop43
 90
        3
102
RTVSPost2010PropOp43
 70
     1
102
RTVSPost2010Prop44ColorIndex
 90
        5
102
RTVSPost2010Prop44ColorRGB
 90
      255
102
RTVSPost2010PropOp44
 70
     1
102
RTVSPost2010Prop45
280
     0
102
RTVSPost2010PropOp45
 70
     1
102
RTVSPost2010Prop46
 90
       50
102
RTVSPost2010PropOp46
 70
     1
102
RTVSPost2010Prop47
 90
       50
102
RTVSPost2010PropOp47
 70
     1
102
RTVSPost2010Prop48
 90
       50
102
RTVSPost2010PropOp48
 70
     1
102
RTVSPost2010Prop49
280
     0
102
RTVSPost2010PropOp49
 70
     1
102
RTVSPost2010Prop50
 90
       50
102
RTVSPost2010PropOp50
 70
     1
102
RTVSPost2010Prop51ColorIndex
 90
      256
102
RTVSPost2010Prop51ColorRGB
 90
-16777216
102
RTVSPost2010PropOp51
 70
     0
102
RTVSPost2010Prop52
140
1.0
102
RTVSPost2010PropOp52
 70
     0
102
RTVSPost2010Prop53
 90
        2
102
RTVSPost2010PropOp53
 70
     1
102
RTVSPost2010Prop54
  1
strokes_ogs.tif
102
RTVSPost2010PropOp54
 70
     1
102
RTVSPost2010Prop55
280
     0
102
RTVSPost2010PropOp55
 70
     1
102
RTVSPost2010Prop56
140
1.0
102
RTVSPost2010PropOp56
 70
     1
102
RTVSPost2010Prop57
140
1.0
102
RTVSPost2010PropOp57
 70
     1
  0
XRECORD
  5
25E4
102
{ACAD_REACTORS
330
25E3
102
}
330
25E3
100
AcDbXrecord
280
     1
102
RTVSPropertyOp0
 70
     0
102
RTVSPropertyOp1
 70
     0
102
RTVSPropertyOp2
 70
     0
102
RTVSPropertyOp3
 70
     0
102
RTVSPropertyOp4
 70
     0
102
RTVSPropertyOp5
 70
     0
102
RTVSPropertyOp6
 70
     0
102
RTVSPropertyOp7
 70
     0
102
RTVSPropertyOp8
 70
     0
102
RTVSPropertyOp9
 70
     0
102
RTVSPropertyOp10
 70
     0
102
RTVSPropertyOp11
 70
     0
102
RTVSPropertyOp12
 70
     0
102
RTVSPropertyOp13
 70
     0
102
RTVSPropertyOp14
 70
     0
102
RTVSPropertyOp15
 70
     0
102
RTVSPropertyOp16
 70
     0
102
RTVSPropertyOp17
 70
     0
102
RTVSPropertyOp18
 70
     0
102
RTVSPropertyOp19
 70
     0
102
RTVSPropertyOp20
 70
     0
102
RTVSPropertyOp21
 70
     0
102
RTVSPropertyOp22
 70
     0
102
RTVSPropertyOp23
 70
     0
102
RTVSPropertyOp24
 70
     0
102
RTVSPropertyOp25
 70
     0
102
RTVSPropertyOp26
 70
     0
102
RTVSPropertyOp27
 70
     0
102
RTVSPropertyOp28
 70
     1
102
RTVSPropertyOp29
 70
     1
102
RTVSPropertyOp30
 70
     1
102
RTVSPropertyOp31
 70
     1
102
RTVSPropertyOp32
 70
     1
102
RTVSPropertyOp33
 70
     1
102
RTVSPropertyOp34
 70
     1
102
RTVSPropertyOp35
 70
     1
102
RTVSPropertyOp36
 70
     1
102
RTVSPropertyOp37
 70
     1
102
RTVSPropertyOp38
 70
     1
102
RTVSPropertyOp39
 70
     1
102
RTVSPropertyOp40
 70
     1
102
RTVSPropertyOp41
 70
     1
102
RTVSPropertyOp42
 70
     1
102
RTVSPropertyOp43
 70
     1
102
RTVSPropertyOp44
 70
     1
102
RTVSPropertyOp45
 70
     1
102
RTVSPropertyOp46
 70
     1
102
RTVSPropertyOp47
 70
     1
102
RTVSPropertyOp48
 70
     1
102
RTVSPropertyOp49
 70
     1
102
RTVSPropertyOp50
 70
     1
102
RTVSPropertyOp51
 70
     0
102
RTVSPropertyOp52
 70
     0
102
RTVSPropertyOp53
 70
     1
102
RTVSPropertyOp54
 70
     1
102
RTVSPropertyOp55
 70
     1
102
RTVSPropertyOp56
 70
     1
102
RTVSPropertyOp57
 70
     1
102
RTVSPost2010Prop28
280
     0
102
RTVSPost2010PropOp28
 70
     1
102
RTVSPost2010Prop29
280
     1
102
RTVSPost2010PropOp29
 70
     1
102
RTVSPost2010Prop30
280
     1
102
RTVSPost2010PropOp30
 70
     1
102
RTVSPost2010Prop31
280
     0
102
RTVSPost2010PropOp31
 70
     1
102
RTVSPost2010Prop32
280
     0
102
RTVSPost2010PropOp32
 70
     1
102
RTVSPost2010Prop33
280
     0
102
RTVSPost2010PropOp33
 70
     1
102
RTVSPost2010Prop34
280
     0
102
RTVSPost2010PropOp34
 70
     1
102
RTVSPost2010Prop35
280
     0
102
RTVSPost2010PropOp35
 70
     1
102
RTVSPost2010Prop36
280
     0
102
RTVSPost2010PropOp36
 70
     1
102
RTVSPost2010Prop37
 90
       50
102
RTVSPost2010PropOp37
 70
     1
102
RTVSPost2010Prop38
140
0.0
102
RTVSPost2010PropOp38
 70
     1
102
RTVSPost2010Prop39
140
1.0
102
RTVSPost2010PropOp39
 70
     1
102
RTVSPost2010Prop40
 90
        0
102
RTVSPost2010PropOp40
 70
     1
102
RTVSPost2010Prop41ColorIndex
 90
       18
102
RTVSPost2010Prop41ColorRGB
 90
        0
102
RTVSPost2010PropOp41
 70
     1
102
RTVSPost2010Prop42
 90
       50
102
RTVSPost2010PropOp42
 70
     1
102
RTVSPost2010Prop43
 90
        3
102
RTVSPost2010PropOp43
 70
     1
102
RTVSPost2010Prop44ColorIndex
 90
        5
102
RTVSPost2010Prop44ColorRGB
 90
      255
102
RTVSPost2010PropOp44
 70
     1
102
RTVSPost2010Prop45
280
     0
102
RTVSPost2010PropOp45
 70
     1
102
RTVSPost2010Prop46
 90
       50
102
RTVSPost2010PropOp46
 70
     1
102
RTVSPost2010Prop47
 90
       50
102
RTVSPost2010PropOp47
 70
     1
102
RTVSPost2010Prop48
 90
       50
102
RTVSPost2010PropOp48
 70
     1
102
RTVSPost2010Prop49
280
     0
102
RTVSPost2010PropOp49
 70
     1
102
RTVSPost2010Prop50
 90
       50
102
RTVSPost2010PropOp50
 70
     1
102
RTVSPost2010Prop51ColorIndex
 90
      256
102
RTVSPost2010Prop51ColorRGB
 90
-16777216
102
RTVSPost2010PropOp51
 70
     0
102
RTVSPost2010Prop52
140
1.0
102
RTVSPost2010PropOp52
 70
     0
102
RTVSPost2010Prop53
 90
        2
102
RTVSPost2010PropOp53
 70
     1
102
RTVSPost2010Prop54
  1
strokes_ogs.tif
102
RTVSPost2010PropOp54
 70
     1
102
RTVSPost2010Prop55
280
     0
102
RTVSPost2010PropOp55
 70
     1
102
RTVSPost2010Prop56
140
1.0
102
RTVSPost2010PropOp56
 70
     1
102
RTVSPost2010Prop57
140
1.0
102
RTVSPost2010PropOp57
 70
     1
  0
XRECORD
  5
25DA
102
{ACAD_REACTORS
330
25D9
102
}
330
25D9
100
AcDbXrecord
280
     1
102
RTVSPropertyOp0
 70
     1
102
RTVSPropertyOp1
 70
     1
102
RTVSPropertyOp2
 70
     1
102
RTVSPropertyOp3
 70
     1
102
RTVSPropertyOp4
 70
     1
102
RTVSPropertyOp5
 70
     1
102
RTVSPropertyOp6
 70
     1
102
RTVSPropertyOp7
 70
     1
102
RTVSPropertyOp8
 70
     1
102
RTVSPropertyOp9
 70
     1
102
RTVSPropertyOp10
 70
     1
102
RTVSPropertyOp11
 70
     1
102
RTVSPropertyOp12
 70
     1
102
RTVSPropertyOp13
 70
     1
102
RTVSPropertyOp14
 70
     1
102
RTVSPropertyOp15
 70
     1
102
RTVSPropertyOp16
 70
     1
102
RTVSPropertyOp17
 70
     1
102
RTVSPropertyOp18
 70
     1
102
RTVSPropertyOp19
 70
     1
102
RTVSPropertyOp20
 70
     1
102
RTVSPropertyOp21
 70
     1
102
RTVSPropertyOp22
 70
     1
102
RTVSPropertyOp23
 70
     1
102
RTVSPropertyOp24
 70
     1
102
RTVSPropertyOp25
 70
     1
102
RTVSPropertyOp26
 70
     1
102
RTVSPropertyOp27
 70
     1
102
RTVSPropertyOp28
 70
     1
102
RTVSPropertyOp29
 70
     1
102
RTVSPropertyOp30
 70
     1
102
RTVSPropertyOp31
 70
     1
102
RTVSPropertyOp32
 70
     1
102
RTVSPropertyOp33
 70
     1
102
RTVSPropertyOp34
 70
     1
102
RTVSPropertyOp35
 70
     1
102
RTVSPropertyOp36
 70
     1
102
RTVSPropertyOp37
 70
     1
102
RTVSPropertyOp38
 70
     1
102
RTVSPropertyOp39
 70
     1
102
RTVSPropertyOp40
 70
     1
102
RTVSPropertyOp41
 70
     1
102
RTVSPropertyOp42
 70
     1
102
RTVSPropertyOp43
 70
     1
102
RTVSPropertyOp44
 70
     1
102
RTVSPropertyOp45
 70
     1
102
RTVSPropertyOp46
 70
     1
102
RTVSPropertyOp47
 70
     1
102
RTVSPropertyOp48
 70
     1
102
RTVSPropertyOp49
 70
     1
102
RTVSPropertyOp50
 70
     1
102
RTVSPropertyOp51
 70
     0
102
RTVSPropertyOp52
 70
     0
102
RTVSPropertyOp53
 70
     1
102
RTVSPropertyOp54
 70
     1
102
RTVSPropertyOp55
 70
     1
102
RTVSPropertyOp56
 70
     1
102
RTVSPropertyOp57
 70
     1
102
RTVSPost2010Prop28
280
     0
102
RTVSPost2010PropOp28
 70
     1
102
RTVSPost2010Prop29
280
     1
102
RTVSPost2010PropOp29
 70
     1
102
RTVSPost2010Prop30
280
     1
102
RTVSPost2010PropOp30
 70
     1
102
RTVSPost2010Prop31
280
     0
102
RTVSPost2010PropOp31
 70
     1
102
RTVSPost2010Prop32
280
     0
102
RTVSPost2010PropOp32
 70
     1
102
RTVSPost2010Prop33
280
     0
102
RTVSPost2010PropOp33
 70
     1
102
RTVSPost2010Prop34
280
     0
102
RTVSPost2010PropOp34
 70
     1
102
RTVSPost2010Prop35
280
     0
102
RTVSPost2010PropOp35
 70
     1
102
RTVSPost2010Prop36
280
     0
102
RTVSPost2010PropOp36
 70
     1
102
RTVSPost2010Prop37
 90
       50
102
RTVSPost2010PropOp37
 70
     1
102
RTVSPost2010Prop38
140
0.0
102
RTVSPost2010PropOp38
 70
     1
102
RTVSPost2010Prop39
140
1.0
102
RTVSPost2010PropOp39
 70
     1
102
RTVSPost2010Prop40
 90
        0
102
RTVSPost2010PropOp40
 70
     1
102
RTVSPost2010Prop41ColorIndex
 90
       18
102
RTVSPost2010Prop41ColorRGB
 90
        0
102
RTVSPost2010PropOp41
 70
     1
102
RTVSPost2010Prop42
 90
       50
102
RTVSPost2010PropOp42
 70
     1
102
RTVSPost2010Prop43
 90
        3
102
RTVSPost2010PropOp43
 70
     1
102
RTVSPost2010Prop44ColorIndex
 90
        5
102
RTVSPost2010Prop44ColorRGB
 90
      255
102
RTVSPost2010PropOp44
 70
     1
102
RTVSPost2010Prop45
280
     0
102
RTVSPost2010PropOp45
 70
     1
102
RTVSPost2010Prop46
 90
       50
102
RTVSPost2010PropOp46
 70
     1
102
RTVSPost2010Prop47
 90
       50
102
RTVSPost2010PropOp47
 70
     1
102
RTVSPost2010Prop48
 90
       50
102
RTVSPost2010PropOp48
 70
     1
102
RTVSPost2010Prop49
280
     0
102
RTVSPost2010PropOp49
 70
     1
102
RTVSPost2010Prop50
 90
       50
102
RTVSPost2010PropOp50
 70
     1
102
RTVSPost2010Prop51ColorIndex
 90
      256
102
RTVSPost2010Prop51ColorRGB
 90
-16777216
102
RTVSPost2010PropOp51
 70
     0
102
RTVSPost2010Prop52
140
1.0
102
RTVSPost2010PropOp52
 70
     0
102
RTVSPost2010Prop53
 90
        2
102
RTVSPost2010PropOp53
 70
     1
102
RTVSPost2010Prop54
  1
strokes_ogs.tif
102
RTVSPost2010PropOp54
 70
     1
102
RTVSPost2010Prop55
280
     0
102
RTVSPost2010PropOp55
 70
     1
102
RTVSPost2010Prop56
140
1.0
102
RTVSPost2010PropOp56
 70
     1
102
RTVSPost2010Prop57
140
1.0
102
RTVSPost2010PropOp57
 70
     1
  0
XRECORD
  5
25E6
102
{ACAD_REACTORS
330
25E5
102
}
330
25E5
100
AcDbXrecord
280
     1
102
RTVSPropertyOp0
 70
     0
102
RTVSPropertyOp1
 70
     0
102
RTVSPropertyOp2
 70
     0
102
RTVSPropertyOp3
 70
     0
102
RTVSPropertyOp4
 70
     0
102
RTVSPropertyOp5
 70
     0
102
RTVSPropertyOp6
 70
     0
102
RTVSPropertyOp7
 70
     0
102
RTVSPropertyOp8
 70
     0
102
RTVSPropertyOp9
 70
     0
102
RTVSPropertyOp10
 70
     0
102
RTVSPropertyOp11
 70
     0
102
RTVSPropertyOp12
 70
     0
102
RTVSPropertyOp13
 70
     0
102
RTVSPropertyOp14
 70
     0
102
RTVSPropertyOp15
 70
     0
102
RTVSPropertyOp16
 70
     0
102
RTVSPropertyOp17
 70
     0
102
RTVSPropertyOp18
 70
     0
102
RTVSPropertyOp19
 70
     0
102
RTVSPropertyOp20
 70
     0
102
RTVSPropertyOp21
 70
     0
102
RTVSPropertyOp22
 70
     0
102
RTVSPropertyOp23
 70
     0
102
RTVSPropertyOp24
 70
     0
102
RTVSPropertyOp25
 70
     0
102
RTVSPropertyOp26
 70
     0
102
RTVSPropertyOp27
 70
     0
102
RTVSPropertyOp28
 70
     1
102
RTVSPropertyOp29
 70
     1
102
RTVSPropertyOp30
 70
     1
102
RTVSPropertyOp31
 70
     1
102
RTVSPropertyOp32
 70
     1
102
RTVSPropertyOp33
 70
     1
102
RTVSPropertyOp34
 70
     1
102
RTVSPropertyOp35
 70
     1
102
RTVSPropertyOp36
 70
     1
102
RTVSPropertyOp37
 70
     1
102
RTVSPropertyOp38
 70
     1
102
RTVSPropertyOp39
 70
     1
102
RTVSPropertyOp40
 70
     1
102
RTVSPropertyOp41
 70
     1
102
RTVSPropertyOp42
 70
     1
102
RTVSPropertyOp43
 70
     1
102
RTVSPropertyOp44
 70
     1
102
RTVSPropertyOp45
 70
     1
102
RTVSPropertyOp46
 70
     1
102
RTVSPropertyOp47
 70
     1
102
RTVSPropertyOp48
 70
     1
102
RTVSPropertyOp49
 70
     1
102
RTVSPropertyOp50
 70
     1
102
RTVSPropertyOp51
 70
     0
102
RTVSPropertyOp52
 70
     0
102
RTVSPropertyOp53
 70
     1
102
RTVSPropertyOp54
 70
     1
102
RTVSPropertyOp55
 70
     1
102
RTVSPropertyOp56
 70
     1
102
RTVSPropertyOp57
 70
     1
102
RTVSPost2010Prop28
280
     0
102
RTVSPost2010PropOp28
 70
     1
102
RTVSPost2010Prop29
280
     1
102
RTVSPost2010PropOp29
 70
     1
102
RTVSPost2010Prop30
280
     1
102
RTVSPost2010PropOp30
 70
     1
102
RTVSPost2010Prop31
280
     0
102
RTVSPost2010PropOp31
 70
     1
102
RTVSPost2010Prop32
280
     0
102
RTVSPost2010PropOp32
 70
     1
102
RTVSPost2010Prop33
280
     0
102
RTVSPost2010PropOp33
 70
     1
102
RTVSPost2010Prop34
280
     0
102
RTVSPost2010PropOp34
 70
     1
102
RTVSPost2010Prop35
280
     0
102
RTVSPost2010PropOp35
 70
     1
102
RTVSPost2010Prop36
280
     0
102
RTVSPost2010PropOp36
 70
     1
102
RTVSPost2010Prop37
 90
       50
102
RTVSPost2010PropOp37
 70
     1
102
RTVSPost2010Prop38
140
0.0
102
RTVSPost2010PropOp38
 70
     1
102
RTVSPost2010Prop39
140
1.0
102
RTVSPost2010PropOp39
 70
     1
102
RTVSPost2010Prop40
 90
        0
102
RTVSPost2010PropOp40
 70
     1
102
RTVSPost2010Prop41ColorIndex
 90
       18
102
RTVSPost2010Prop41ColorRGB
 90
        0
102
RTVSPost2010PropOp41
 70
     1
102
RTVSPost2010Prop42
 90
       50
102
RTVSPost2010PropOp42
 70
     1
102
RTVSPost2010Prop43
 90
        3
102
RTVSPost2010PropOp43
 70
     1
102
RTVSPost2010Prop44ColorIndex
 90
        5
102
RTVSPost2010Prop44ColorRGB
 90
      255
102
RTVSPost2010PropOp44
 70
     1
102
RTVSPost2010Prop45
280
     0
102
RTVSPost2010PropOp45
 70
     1
102
RTVSPost2010Prop46
 90
       50
102
RTVSPost2010PropOp46
 70
     1
102
RTVSPost2010Prop47
 90
       50
102
RTVSPost2010PropOp47
 70
     1
102
RTVSPost2010Prop48
 90
       50
102
RTVSPost2010PropOp48
 70
     1
102
RTVSPost2010Prop49
280
     0
102
RTVSPost2010PropOp49
 70
     1
102
RTVSPost2010Prop50
 90
       50
102
RTVSPost2010PropOp50
 70
     1
102
RTVSPost2010Prop51ColorIndex
 90
      256
102
RTVSPost2010Prop51ColorRGB
 90
-16777216
102
RTVSPost2010PropOp51
 70
     0
102
RTVSPost2010Prop52
140
1.0
102
RTVSPost2010PropOp52
 70
     0
102
RTVSPost2010Prop53
 90
        2
102
RTVSPost2010PropOp53
 70
     1
102
RTVSPost2010Prop54
  1
strokes_ogs.tif
102
RTVSPost2010PropOp54
 70
     1
102
RTVSPost2010Prop55
280
     0
102
RTVSPost2010PropOp55
 70
     1
102
RTVSPost2010Prop56
140
1.0
102
RTVSPost2010PropOp56
 70
     1
102
RTVSPost2010Prop57
140
1.0
102
RTVSPost2010PropOp57
 70
     1
  0
XRECORD
  5
25D0
102
{ACAD_REACTORS
330
25CF
102
}
330
25CF
100
AcDbXrecord
280
     1
102
RTVSPropertyOp0
 70
     1
102
RTVSPropertyOp1
 70
     1
102
RTVSPropertyOp2
 70
     1
102
RTVSPropertyOp3
 70
     1
102
RTVSPropertyOp4
 70
     1
102
RTVSPropertyOp5
 70
     1
102
RTVSPropertyOp6
 70
     1
102
RTVSPropertyOp7
 70
     1
102
RTVSPropertyOp8
 70
     1
102
RTVSPropertyOp9
 70
     1
102
RTVSPropertyOp10
 70
     1
102
RTVSPropertyOp11
 70
     1
102
RTVSPropertyOp12
 70
     1
102
RTVSPropertyOp13
 70
     1
102
RTVSPropertyOp14
 70
     1
102
RTVSPropertyOp15
 70
     1
102
RTVSPropertyOp16
 70
     1
102
RTVSPropertyOp17
 70
     1
102
RTVSPropertyOp18
 70
     1
102
RTVSPropertyOp19
 70
     1
102
RTVSPropertyOp20
 70
     1
102
RTVSPropertyOp21
 70
     1
102
RTVSPropertyOp22
 70
     1
102
RTVSPropertyOp23
 70
     1
102
RTVSPropertyOp24
 70
     1
102
RTVSPropertyOp25
 70
     1
102
RTVSPropertyOp26
 70
     1
102
RTVSPropertyOp27
 70
     1
102
RTVSPropertyOp28
 70
     1
102
RTVSPropertyOp29
 70
     1
102
RTVSPropertyOp30
 70
     1
102
RTVSPropertyOp31
 70
     1
102
RTVSPropertyOp32
 70
     1
102
RTVSPropertyOp33
 70
     1
102
RTVSPropertyOp34
 70
     1
102
RTVSPropertyOp35
 70
     1
102
RTVSPropertyOp36
 70
     1
102
RTVSPropertyOp37
 70
     1
102
RTVSPropertyOp38
 70
     1
102
RTVSPropertyOp39
 70
     1
102
RTVSPropertyOp40
 70
     1
102
RTVSPropertyOp41
 70
     1
102
RTVSPropertyOp42
 70
     1
102
RTVSPropertyOp43
 70
     1
102
RTVSPropertyOp44
 70
     1
102
RTVSPropertyOp45
 70
     1
102
RTVSPropertyOp46
 70
     1
102
RTVSPropertyOp47
 70
     1
102
RTVSPropertyOp48
 70
     1
102
RTVSPropertyOp49
 70
     1
102
RTVSPropertyOp50
 70
     1
102
RTVSPropertyOp51
 70
     0
102
RTVSPropertyOp52
 70
     0
102
RTVSPropertyOp53
 70
     1
102
RTVSPropertyOp54
 70
     1
102
RTVSPropertyOp55
 70
     1
102
RTVSPropertyOp56
 70
     1
102
RTVSPropertyOp57
 70
     1
102
RTVSPost2010Prop28
280
     0
102
RTVSPost2010PropOp28
 70
     1
102
RTVSPost2010Prop29
280
     1
102
RTVSPost2010PropOp29
 70
     1
102
RTVSPost2010Prop30
280
     1
102
RTVSPost2010PropOp30
 70
     1
102
RTVSPost2010Prop31
280
     0
102
RTVSPost2010PropOp31
 70
     1
102
RTVSPost2010Prop32
280
     0
102
RTVSPost2010PropOp32
 70
     1
102
RTVSPost2010Prop33
280
     0
102
RTVSPost2010PropOp33
 70
     1
102
RTVSPost2010Prop34
280
     0
102
RTVSPost2010PropOp34
 70
     1
102
RTVSPost2010Prop35
280
     0
102
RTVSPost2010PropOp35
 70
     1
102
RTVSPost2010Prop36
280
     0
102
RTVSPost2010PropOp36
 70
     1
102
RTVSPost2010Prop37
 90
       50
102
RTVSPost2010PropOp37
 70
     1
102
RTVSPost2010Prop38
140
0.0
102
RTVSPost2010PropOp38
 70
     1
102
RTVSPost2010Prop39
140
1.0
102
RTVSPost2010PropOp39
 70
     1
102
RTVSPost2010Prop40
 90
        0
102
RTVSPost2010PropOp40
 70
     1
102
RTVSPost2010Prop41ColorIndex
 90
       18
102
RTVSPost2010Prop41ColorRGB
 90
        0
102
RTVSPost2010PropOp41
 70
     1
102
RTVSPost2010Prop42
 90
       50
102
RTVSPost2010PropOp42
 70
     1
102
RTVSPost2010Prop43
 90
        3
102
RTVSPost2010PropOp43
 70
     1
102
RTVSPost2010Prop44ColorIndex
 90
        5
102
RTVSPost2010Prop44ColorRGB
 90
      255
102
RTVSPost2010PropOp44
 70
     1
102
RTVSPost2010Prop45
280
     0
102
RTVSPost2010PropOp45
 70
     1
102
RTVSPost2010Prop46
 90
       50
102
RTVSPost2010PropOp46
 70
     1
102
RTVSPost2010Prop47
 90
       50
102
RTVSPost2010PropOp47
 70
     1
102
RTVSPost2010Prop48
 90
       50
102
RTVSPost2010PropOp48
 70
     1
102
RTVSPost2010Prop49
280
     0
102
RTVSPost2010PropOp49
 70
     1
102
RTVSPost2010Prop50
 90
       50
102
RTVSPost2010PropOp50
 70
     1
102
RTVSPost2010Prop51ColorIndex
 90
      256
102
RTVSPost2010Prop51ColorRGB
 90
-16777216
102
RTVSPost2010PropOp51
 70
     0
102
RTVSPost2010Prop52
140
1.0
102
RTVSPost2010PropOp52
 70
     0
102
RTVSPost2010Prop53
 90
        2
102
RTVSPost2010PropOp53
 70
     1
102
RTVSPost2010Prop54
  1
strokes_ogs.tif
102
RTVSPost2010PropOp54
 70
     1
102
RTVSPost2010Prop55
280
     0
102
RTVSPost2010PropOp55
 70
     1
102
RTVSPost2010Prop56
140
1.0
102
RTVSPost2010PropOp56
 70
     1
102
RTVSPost2010Prop57
140
1.0
102
RTVSPost2010PropOp57
 70
     1
  0
XRECORD
  5
25F2
102
{ACAD_REACTORS
330
25F1
102
}
330
25F1
100
AcDbXrecord
280
     1
102
RTVSPropertyOp0
 70
     1
102
RTVSPropertyOp1
 70
     1
102
RTVSPropertyOp2
 70
     1
102
RTVSPropertyOp3
 70
     1
102
RTVSPropertyOp4
 70
     1
102
RTVSPropertyOp5
 70
     1
102
RTVSPropertyOp6
 70
     1
102
RTVSPropertyOp7
 70
     1
102
RTVSPropertyOp8
 70
     1
102
RTVSPropertyOp9
 70
     1
102
RTVSPropertyOp10
 70
     1
102
RTVSPropertyOp11
 70
     1
102
RTVSPropertyOp12
 70
     1
102
RTVSPropertyOp13
 70
     1
102
RTVSPropertyOp14
 70
     1
102
RTVSPropertyOp15
 70
     1
102
RTVSPropertyOp16
 70
     1
102
RTVSPropertyOp17
 70
     1
102
RTVSPropertyOp18
 70
     1
102
RTVSPropertyOp19
 70
     1
102
RTVSPropertyOp20
 70
     1
102
RTVSPropertyOp21
 70
     1
102
RTVSPropertyOp22
 70
     1
102
RTVSPropertyOp23
 70
     1
102
RTVSPropertyOp24
 70
     1
102
RTVSPropertyOp25
 70
     1
102
RTVSPropertyOp26
 70
     1
102
RTVSPropertyOp27
 70
     1
102
RTVSPropertyOp28
 70
     1
102
RTVSPropertyOp29
 70
     1
102
RTVSPropertyOp30
 70
     1
102
RTVSPropertyOp31
 70
     1
102
RTVSPropertyOp32
 70
     1
102
RTVSPropertyOp33
 70
     1
102
RTVSPropertyOp34
 70
     1
102
RTVSPropertyOp35
 70
     1
102
RTVSPropertyOp36
 70
     1
102
RTVSPropertyOp37
 70
     1
102
RTVSPropertyOp38
 70
     1
102
RTVSPropertyOp39
 70
     1
102
RTVSPropertyOp40
 70
     1
102
RTVSPropertyOp41
 70
     1
102
RTVSPropertyOp42
 70
     1
102
RTVSPropertyOp43
 70
     1
102
RTVSPropertyOp44
 70
     1
102
RTVSPropertyOp45
 70
     1
102
RTVSPropertyOp46
 70
     1
102
RTVSPropertyOp47
 70
     1
102
RTVSPropertyOp48
 70
     1
102
RTVSPropertyOp49
 70
     1
102
RTVSPropertyOp50
 70
     1
102
RTVSPropertyOp51
 70
     0
102
RTVSPropertyOp52
 70
     0
102
RTVSPropertyOp53
 70
     1
102
RTVSPropertyOp54
 70
     1
102
RTVSPropertyOp55
 70
     1
102
RTVSPropertyOp56
 70
     1
102
RTVSPropertyOp57
 70
     1
102
RTVSPost2010Prop28
280
     0
102
RTVSPost2010PropOp28
 70
     1
102
RTVSPost2010Prop29
280
     1
102
RTVSPost2010PropOp29
 70
     1
102
RTVSPost2010Prop30
280
     1
102
RTVSPost2010PropOp30
 70
     1
102
RTVSPost2010Prop31
280
     0
102
RTVSPost2010PropOp31
 70
     1
102
RTVSPost2010Prop32
280
     0
102
RTVSPost2010PropOp32
 70
     1
102
RTVSPost2010Prop33
280
     0
102
RTVSPost2010PropOp33
 70
     1
102
RTVSPost2010Prop34
280
     0
102
RTVSPost2010PropOp34
 70
     1
102
RTVSPost2010Prop35
280
     0
102
RTVSPost2010PropOp35
 70
     1
102
RTVSPost2010Prop36
280
     0
102
RTVSPost2010PropOp36
 70
     1
102
RTVSPost2010Prop37
 90
       50
102
RTVSPost2010PropOp37
 70
     1
102
RTVSPost2010Prop38
140
0.0
102
RTVSPost2010PropOp38
 70
     1
102
RTVSPost2010Prop39
140
1.0
102
RTVSPost2010PropOp39
 70
     1
102
RTVSPost2010Prop40
 90
        0
102
RTVSPost2010PropOp40
 70
     1
102
RTVSPost2010Prop41ColorIndex
 90
       18
102
RTVSPost2010Prop41ColorRGB
 90
        0
102
RTVSPost2010PropOp41
 70
     1
102
RTVSPost2010Prop42
 90
       50
102
RTVSPost2010PropOp42
 70
     1
102
RTVSPost2010Prop43
 90
        3
102
RTVSPost2010PropOp43
 70
     1
102
RTVSPost2010Prop44ColorIndex
 90
        5
102
RTVSPost2010Prop44ColorRGB
 90
      255
102
RTVSPost2010PropOp44
 70
     1
102
RTVSPost2010Prop45
280
     0
102
RTVSPost2010PropOp45
 70
     1
102
RTVSPost2010Prop46
 90
       50
102
RTVSPost2010PropOp46
 70
     1
102
RTVSPost2010Prop47
 90
       50
102
RTVSPost2010PropOp47
 70
     1
102
RTVSPost2010Prop48
 90
       50
102
RTVSPost2010PropOp48
 70
     1
102
RTVSPost2010Prop49
280
     0
102
RTVSPost2010PropOp49
 70
     1
102
RTVSPost2010Prop50
 90
       50
102
RTVSPost2010PropOp50
 70
     1
102
RTVSPost2010Prop51ColorIndex
 90
      256
102
RTVSPost2010Prop51ColorRGB
 90
-16777216
102
RTVSPost2010PropOp51
 70
     0
102
RTVSPost2010Prop52
140
1.0
102
RTVSPost2010PropOp52
 70
     0
102
RTVSPost2010Prop53
 90
        2
102
RTVSPost2010PropOp53
 70
     1
102
RTVSPost2010Prop54
  1
strokes_ogs.tif
102
RTVSPost2010PropOp54
 70
     1
102
RTVSPost2010Prop55
280
     0
102
RTVSPost2010PropOp55
 70
     1
102
RTVSPost2010Prop56
140
1.0
102
RTVSPost2010PropOp56
 70
     1
102
RTVSPost2010Prop57
140
1.0
102
RTVSPost2010PropOp57
 70
     1
  0
XRECORD
  5
25F0
102
{ACAD_REACTORS
330
25EF
102
}
330
25EF
100
AcDbXrecord
280
     1
102
RTVSPropertyOp0
 70
     1
102
RTVSPropertyOp1
 70
     1
102
RTVSPropertyOp2
 70
     1
102
RTVSPropertyOp3
 70
     1
102
RTVSPropertyOp4
 70
     1
102
RTVSPropertyOp5
 70
     1
102
RTVSPropertyOp6
 70
     1
102
RTVSPropertyOp7
 70
     1
102
RTVSPropertyOp8
 70
     1
102
RTVSPropertyOp9
 70
     1
102
RTVSPropertyOp10
 70
     1
102
RTVSPropertyOp11
 70
     1
102
RTVSPropertyOp12
 70
     1
102
RTVSPropertyOp13
 70
     1
102
RTVSPropertyOp14
 70
     1
102
RTVSPropertyOp15
 70
     1
102
RTVSPropertyOp16
 70
     1
102
RTVSPropertyOp17
 70
     1
102
RTVSPropertyOp18
 70
     1
102
RTVSPropertyOp19
 70
     1
102
RTVSPropertyOp20
 70
     1
102
RTVSPropertyOp21
 70
     1
102
RTVSPropertyOp22
 70
     1
102
RTVSPropertyOp23
 70
     1
102
RTVSPropertyOp24
 70
     1
102
RTVSPropertyOp25
 70
     1
102
RTVSPropertyOp26
 70
     1
102
RTVSPropertyOp27
 70
     1
102
RTVSPropertyOp28
 70
     1
102
RTVSPropertyOp29
 70
     1
102
RTVSPropertyOp30
 70
     1
102
RTVSPropertyOp31
 70
     1
102
RTVSPropertyOp32
 70
     1
102
RTVSPropertyOp33
 70
     1
102
RTVSPropertyOp34
 70
     1
102
RTVSPropertyOp35
 70
     1
102
RTVSPropertyOp36
 70
     1
102
RTVSPropertyOp37
 70
     1
102
RTVSPropertyOp38
 70
     1
102
RTVSPropertyOp39
 70
     1
102
RTVSPropertyOp40
 70
     1
102
RTVSPropertyOp41
 70
     1
102
RTVSPropertyOp42
 70
     1
102
RTVSPropertyOp43
 70
     1
102
RTVSPropertyOp44
 70
     1
102
RTVSPropertyOp45
 70
     1
102
RTVSPropertyOp46
 70
     1
102
RTVSPropertyOp47
 70
     1
102
RTVSPropertyOp48
 70
     1
102
RTVSPropertyOp49
 70
     1
102
RTVSPropertyOp50
 70
     1
102
RTVSPropertyOp51
 70
     0
102
RTVSPropertyOp52
 70
     0
102
RTVSPropertyOp53
 70
     1
102
RTVSPropertyOp54
 70
     1
102
RTVSPropertyOp55
 70
     1
102
RTVSPropertyOp56
 70
     1
102
RTVSPropertyOp57
 70
     1
102
RTVSPost2010Prop28
280
     0
102
RTVSPost2010PropOp28
 70
     1
102
RTVSPost2010Prop29
280
     1
102
RTVSPost2010PropOp29
 70
     1
102
RTVSPost2010Prop30
280
     1
102
RTVSPost2010PropOp30
 70
     1
102
RTVSPost2010Prop31
280
     0
102
RTVSPost2010PropOp31
 70
     1
102
RTVSPost2010Prop32
280
     0
102
RTVSPost2010PropOp32
 70
     1
102
RTVSPost2010Prop33
280
     0
102
RTVSPost2010PropOp33
 70
     1
102
RTVSPost2010Prop34
280
     0
102
RTVSPost2010PropOp34
 70
     1
102
RTVSPost2010Prop35
280
     0
102
RTVSPost2010PropOp35
 70
     1
102
RTVSPost2010Prop36
280
     0
102
RTVSPost2010PropOp36
 70
     1
102
RTVSPost2010Prop37
 90
       50
102
RTVSPost2010PropOp37
 70
     1
102
RTVSPost2010Prop38
140
0.0
102
RTVSPost2010PropOp38
 70
     1
102
RTVSPost2010Prop39
140
1.0
102
RTVSPost2010PropOp39
 70
     1
102
RTVSPost2010Prop40
 90
        0
102
RTVSPost2010PropOp40
 70
     1
102
RTVSPost2010Prop41ColorIndex
 90
       18
102
RTVSPost2010Prop41ColorRGB
 90
        0
102
RTVSPost2010PropOp41
 70
     1
102
RTVSPost2010Prop42
 90
       50
102
RTVSPost2010PropOp42
 70
     1
102
RTVSPost2010Prop43
 90
        3
102
RTVSPost2010PropOp43
 70
     1
102
RTVSPost2010Prop44ColorIndex
 90
        5
102
RTVSPost2010Prop44ColorRGB
 90
      255
102
RTVSPost2010PropOp44
 70
     1
102
RTVSPost2010Prop45
280
     0
102
RTVSPost2010PropOp45
 70
     1
102
RTVSPost2010Prop46
 90
       50
102
RTVSPost2010PropOp46
 70
     1
102
RTVSPost2010Prop47
 90
       50
102
RTVSPost2010PropOp47
 70
     1
102
RTVSPost2010Prop48
 90
       50
102
RTVSPost2010PropOp48
 70
     1
102
RTVSPost2010Prop49
280
     0
102
RTVSPost2010PropOp49
 70
     1
102
RTVSPost2010Prop50
 90
       50
102
RTVSPost2010PropOp50
 70
     1
102
RTVSPost2010Prop51ColorIndex
 90
      256
102
RTVSPost2010Prop51ColorRGB
 90
-16777216
102
RTVSPost2010PropOp51
 70
     0
102
RTVSPost2010Prop52
140
1.0
102
RTVSPost2010PropOp52
 70
     0
102
RTVSPost2010Prop53
 90
        2
102
RTVSPost2010PropOp53
 70
     1
102
RTVSPost2010Prop54
  1
strokes_ogs.tif
102
RTVSPost2010PropOp54
 70
     1
102
RTVSPost2010Prop55
280
     0
102
RTVSPost2010PropOp55
 70
     1
102
RTVSPost2010Prop56
140
1.0
102
RTVSPost2010PropOp56
 70
     1
102
RTVSPost2010Prop57
140
1.0
102
RTVSPost2010PropOp57
 70
     1
  0
XRECORD
  5
25EA
102
{ACAD_REACTORS
330
25E9
102
}
330
25E9
100
AcDbXrecord
280
     1
102
RTVSPropertyOp0
 70
     1
102
RTVSPropertyOp1
 70
     1
102
RTVSPropertyOp2
 70
     1
102
RTVSPropertyOp3
 70
     1
102
RTVSPropertyOp4
 70
     1
102
RTVSPropertyOp5
 70
     1
102
RTVSPropertyOp6
 70
     1
102
RTVSPropertyOp7
 70
     1
102
RTVSPropertyOp8
 70
     1
102
RTVSPropertyOp9
 70
     1
102
RTVSPropertyOp10
 70
     1
102
RTVSPropertyOp11
 70
     1
102
RTVSPropertyOp12
 70
     1
102
RTVSPropertyOp13
 70
     1
102
RTVSPropertyOp14
 70
     1
102
RTVSPropertyOp15
 70
     1
102
RTVSPropertyOp16
 70
     1
102
RTVSPropertyOp17
 70
     1
102
RTVSPropertyOp18
 70
     1
102
RTVSPropertyOp19
 70
     1
102
RTVSPropertyOp20
 70
     1
102
RTVSPropertyOp21
 70
     1
102
RTVSPropertyOp22
 70
     1
102
RTVSPropertyOp23
 70
     1
102
RTVSPropertyOp24
 70
     1
102
RTVSPropertyOp25
 70
     1
102
RTVSPropertyOp26
 70
     1
102
RTVSPropertyOp27
 70
     1
102
RTVSPropertyOp28
 70
     1
102
RTVSPropertyOp29
 70
     1
102
RTVSPropertyOp30
 70
     1
102
RTVSPropertyOp31
 70
     1
102
RTVSPropertyOp32
 70
     1
102
RTVSPropertyOp33
 70
     1
102
RTVSPropertyOp34
 70
     1
102
RTVSPropertyOp35
 70
     1
102
RTVSPropertyOp36
 70
     1
102
RTVSPropertyOp37
 70
     1
102
RTVSPropertyOp38
 70
     1
102
RTVSPropertyOp39
 70
     1
102
RTVSPropertyOp40
 70
     1
102
RTVSPropertyOp41
 70
     1
102
RTVSPropertyOp42
 70
     1
102
RTVSPropertyOp43
 70
     1
102
RTVSPropertyOp44
 70
     1
102
RTVSPropertyOp45
 70
     1
102
RTVSPropertyOp46
 70
     1
102
RTVSPropertyOp47
 70
     1
102
RTVSPropertyOp48
 70
     1
102
RTVSPropertyOp49
 70
     1
102
RTVSPropertyOp50
 70
     1
102
RTVSPropertyOp51
 70
     0
102
RTVSPropertyOp52
 70
     0
102
RTVSPropertyOp53
 70
     1
102
RTVSPropertyOp54
 70
     1
102
RTVSPropertyOp55
 70
     1
102
RTVSPropertyOp56
 70
     1
102
RTVSPropertyOp57
 70
     1
102
RTVSPost2010Prop28
280
     0
102
RTVSPost2010PropOp28
 70
     1
102
RTVSPost2010Prop29
280
     1
102
RTVSPost2010PropOp29
 70
     1
102
RTVSPost2010Prop30
280
     1
102
RTVSPost2010PropOp30
 70
     1
102
RTVSPost2010Prop31
280
     0
102
RTVSPost2010PropOp31
 70
     1
102
RTVSPost2010Prop32
280
     0
102
RTVSPost2010PropOp32
 70
     1
102
RTVSPost2010Prop33
280
     0
102
RTVSPost2010PropOp33
 70
     1
102
RTVSPost2010Prop34
280
     0
102
RTVSPost2010PropOp34
 70
     1
102
RTVSPost2010Prop35
280
     0
102
RTVSPost2010PropOp35
 70
     1
102
RTVSPost2010Prop36
280
     0
102
RTVSPost2010PropOp36
 70
     1
102
RTVSPost2010Prop37
 90
       50
102
RTVSPost2010PropOp37
 70
     1
102
RTVSPost2010Prop38
140
0.0
102
RTVSPost2010PropOp38
 70
     1
102
RTVSPost2010Prop39
140
1.0
102
RTVSPost2010PropOp39
 70
     1
102
RTVSPost2010Prop40
 90
        0
102
RTVSPost2010PropOp40
 70
     1
102
RTVSPost2010Prop41ColorIndex
 90
       18
102
RTVSPost2010Prop41ColorRGB
 90
        0
102
RTVSPost2010PropOp41
 70
     1
102
RTVSPost2010Prop42
 90
       50
102
RTVSPost2010PropOp42
 70
     1
102
RTVSPost2010Prop43
 90
        3
102
RTVSPost2010PropOp43
 70
     1
102
RTVSPost2010Prop44ColorIndex
 90
        5
102
RTVSPost2010Prop44ColorRGB
 90
      255
102
RTVSPost2010PropOp44
 70
     1
102
RTVSPost2010Prop45
280
     0
102
RTVSPost2010PropOp45
 70
     1
102
RTVSPost2010Prop46
 90
       50
102
RTVSPost2010PropOp46
 70
     1
102
RTVSPost2010Prop47
 90
       50
102
RTVSPost2010PropOp47
 70
     1
102
RTVSPost2010Prop48
 90
       50
102
RTVSPost2010PropOp48
 70
     1
102
RTVSPost2010Prop49
280
     0
102
RTVSPost2010PropOp49
 70
     1
102
RTVSPost2010Prop50
 90
       50
102
RTVSPost2010PropOp50
 70
     1
102
RTVSPost2010Prop51ColorIndex
 90
      256
102
RTVSPost2010Prop51ColorRGB
 90
-16777216
102
RTVSPost2010PropOp51
 70
     0
102
RTVSPost2010Prop52
140
1.0
102
RTVSPost2010PropOp52
 70
     0
102
RTVSPost2010Prop53
 90
        2
102
RTVSPost2010PropOp53
 70
     1
102
RTVSPost2010Prop54
  1
strokes_ogs.tif
102
RTVSPost2010PropOp54
 70
     1
102
RTVSPost2010Prop55
280
     0
102
RTVSPost2010PropOp55
 70
     1
102
RTVSPost2010Prop56
140
1.0
102
RTVSPost2010PropOp56
 70
     1
102
RTVSPost2010Prop57
140
1.0
102
RTVSPost2010PropOp57
 70
     1
  0
XRECORD
  5
25EC
102
{ACAD_REACTORS
330
25EB
102
}
330
25EB
100
AcDbXrecord
280
     1
102
RTVSPropertyOp0
 70
     1
102
RTVSPropertyOp1
 70
     1
102
RTVSPropertyOp2
 70
     1
102
RTVSPropertyOp3
 70
     1
102
RTVSPropertyOp4
 70
     1
102
RTVSPropertyOp5
 70
     1
102
RTVSPropertyOp6
 70
     1
102
RTVSPropertyOp7
 70
     1
102
RTVSPropertyOp8
 70
     1
102
RTVSPropertyOp9
 70
     1
102
RTVSPropertyOp10
 70
     1
102
RTVSPropertyOp11
 70
     1
102
RTVSPropertyOp12
 70
     1
102
RTVSPropertyOp13
 70
     1
102
RTVSPropertyOp14
 70
     1
102
RTVSPropertyOp15
 70
     1
102
RTVSPropertyOp16
 70
     1
102
RTVSPropertyOp17
 70
     1
102
RTVSPropertyOp18
 70
     1
102
RTVSPropertyOp19
 70
     1
102
RTVSPropertyOp20
 70
     1
102
RTVSPropertyOp21
 70
     1
102
RTVSPropertyOp22
 70
     1
102
RTVSPropertyOp23
 70
     1
102
RTVSPropertyOp24
 70
     1
102
RTVSPropertyOp25
 70
     1
102
RTVSPropertyOp26
 70
     1
102
RTVSPropertyOp27
 70
     1
102
RTVSPropertyOp28
 70
     1
102
RTVSPropertyOp29
 70
     1
102
RTVSPropertyOp30
 70
     1
102
RTVSPropertyOp31
 70
     1
102
RTVSPropertyOp32
 70
     1
102
RTVSPropertyOp33
 70
     1
102
RTVSPropertyOp34
 70
     1
102
RTVSPropertyOp35
 70
     1
102
RTVSPropertyOp36
 70
     1
102
RTVSPropertyOp37
 70
     1
102
RTVSPropertyOp38
 70
     1
102
RTVSPropertyOp39
 70
     1
102
RTVSPropertyOp40
 70
     1
102
RTVSPropertyOp41
 70
     1
102
RTVSPropertyOp42
 70
     1
102
RTVSPropertyOp43
 70
     1
102
RTVSPropertyOp44
 70
     1
102
RTVSPropertyOp45
 70
     1
102
RTVSPropertyOp46
 70
     1
102
RTVSPropertyOp47
 70
     1
102
RTVSPropertyOp48
 70
     1
102
RTVSPropertyOp49
 70
     1
102
RTVSPropertyOp50
 70
     1
102
RTVSPropertyOp51
 70
     0
102
RTVSPropertyOp52
 70
     0
102
RTVSPropertyOp53
 70
     1
102
RTVSPropertyOp54
 70
     1
102
RTVSPropertyOp55
 70
     1
102
RTVSPropertyOp56
 70
     1
102
RTVSPropertyOp57
 70
     1
102
RTVSPost2010Prop28
280
     0
102
RTVSPost2010PropOp28
 70
     1
102
RTVSPost2010Prop29
280
     1
102
RTVSPost2010PropOp29
 70
     1
102
RTVSPost2010Prop30
280
     1
102
RTVSPost2010PropOp30
 70
     1
102
RTVSPost2010Prop31
280
     0
102
RTVSPost2010PropOp31
 70
     1
102
RTVSPost2010Prop32
280
     0
102
RTVSPost2010PropOp32
 70
     1
102
RTVSPost2010Prop33
280
     0
102
RTVSPost2010PropOp33
 70
     1
102
RTVSPost2010Prop34
280
     0
102
RTVSPost2010PropOp34
 70
     1
102
RTVSPost2010Prop35
280
     0
102
RTVSPost2010PropOp35
 70
     1
102
RTVSPost2010Prop36
280
     0
102
RTVSPost2010PropOp36
 70
     1
102
RTVSPost2010Prop37
 90
       50
102
RTVSPost2010PropOp37
 70
     1
102
RTVSPost2010Prop38
140
0.0
102
RTVSPost2010PropOp38
 70
     1
102
RTVSPost2010Prop39
140
1.0
102
RTVSPost2010PropOp39
 70
     1
102
RTVSPost2010Prop40
 90
        0
102
RTVSPost2010PropOp40
 70
     1
102
RTVSPost2010Prop41ColorIndex
 90
       18
102
RTVSPost2010Prop41ColorRGB
 90
        0
102
RTVSPost2010PropOp41
 70
     1
102
RTVSPost2010Prop42
 90
       50
102
RTVSPost2010PropOp42
 70
     1
102
RTVSPost2010Prop43
 90
        3
102
RTVSPost2010PropOp43
 70
     1
102
RTVSPost2010Prop44ColorIndex
 90
        5
102
RTVSPost2010Prop44ColorRGB
 90
      255
102
RTVSPost2010PropOp44
 70
     1
102
RTVSPost2010Prop45
280
     0
102
RTVSPost2010PropOp45
 70
     1
102
RTVSPost2010Prop46
 90
       50
102
RTVSPost2010PropOp46
 70
     1
102
RTVSPost2010Prop47
 90
       50
102
RTVSPost2010PropOp47
 70
     1
102
RTVSPost2010Prop48
 90
       50
102
RTVSPost2010PropOp48
 70
     1
102
RTVSPost2010Prop49
280
     0
102
RTVSPost2010PropOp49
 70
     1
102
RTVSPost2010Prop50
 90
       50
102
RTVSPost2010PropOp50
 70
     1
102
RTVSPost2010Prop51ColorIndex
 90
      256
102
RTVSPost2010Prop51ColorRGB
 90
-16777216
102
RTVSPost2010PropOp51
 70
     0
102
RTVSPost2010Prop52
140
1.0
102
RTVSPost2010PropOp52
 70
     0
102
RTVSPost2010Prop53
 90
        2
102
RTVSPost2010PropOp53
 70
     1
102
RTVSPost2010Prop54
  1
strokes_ogs.tif
102
RTVSPost2010PropOp54
 70
     1
102
RTVSPost2010Prop55
280
     0
102
RTVSPost2010PropOp55
 70
     1
102
RTVSPost2010Prop56
140
1.0
102
RTVSPost2010PropOp56
 70
     1
102
RTVSPost2010Prop57
140
1.0
102
RTVSPost2010PropOp57
 70
     1
  0
XRECORD
  5
25D8
102
{ACAD_REACTORS
330
25D7
102
}
330
25D7
100
AcDbXrecord
280
     1
102
RTVSPropertyOp0
 70
     1
102
RTVSPropertyOp1
 70
     1
102
RTVSPropertyOp2
 70
     1
102
RTVSPropertyOp3
 70
     1
102
RTVSPropertyOp4
 70
     1
102
RTVSPropertyOp5
 70
     1
102
RTVSPropertyOp6
 70
     1
102
RTVSPropertyOp7
 70
     1
102
RTVSPropertyOp8
 70
     1
102
RTVSPropertyOp9
 70
     1
102
RTVSPropertyOp10
 70
     1
102
RTVSPropertyOp11
 70
     1
102
RTVSPropertyOp12
 70
     1
102
RTVSPropertyOp13
 70
     1
102
RTVSPropertyOp14
 70
     1
102
RTVSPropertyOp15
 70
     1
102
RTVSPropertyOp16
 70
     1
102
RTVSPropertyOp17
 70
     1
102
RTVSPropertyOp18
 70
     1
102
RTVSPropertyOp19
 70
     1
102
RTVSPropertyOp20
 70
     1
102
RTVSPropertyOp21
 70
     1
102
RTVSPropertyOp22
 70
     1
102
RTVSPropertyOp23
 70
     1
102
RTVSPropertyOp24
 70
     1
102
RTVSPropertyOp25
 70
     1
102
RTVSPropertyOp26
 70
     1
102
RTVSPropertyOp27
 70
     1
102
RTVSPropertyOp28
 70
     1
102
RTVSPropertyOp29
 70
     1
102
RTVSPropertyOp30
 70
     1
102
RTVSPropertyOp31
 70
     1
102
RTVSPropertyOp32
 70
     1
102
RTVSPropertyOp33
 70
     1
102
RTVSPropertyOp34
 70
     1
102
RTVSPropertyOp35
 70
     1
102
RTVSPropertyOp36
 70
     1
102
RTVSPropertyOp37
 70
     1
102
RTVSPropertyOp38
 70
     1
102
RTVSPropertyOp39
 70
     1
102
RTVSPropertyOp40
 70
     1
102
RTVSPropertyOp41
 70
     1
102
RTVSPropertyOp42
 70
     1
102
RTVSPropertyOp43
 70
     1
102
RTVSPropertyOp44
 70
     1
102
RTVSPropertyOp45
 70
     1
102
RTVSPropertyOp46
 70
     1
102
RTVSPropertyOp47
 70
     1
102
RTVSPropertyOp48
 70
     1
102
RTVSPropertyOp49
 70
     1
102
RTVSPropertyOp50
 70
     1
102
RTVSPropertyOp51
 70
     0
102
RTVSPropertyOp52
 70
     0
102
RTVSPropertyOp53
 70
     1
102
RTVSPropertyOp54
 70
     1
102
RTVSPropertyOp55
 70
     1
102
RTVSPropertyOp56
 70
     1
102
RTVSPropertyOp57
 70
     1
102
RTVSPost2010Prop28
280
     0
102
RTVSPost2010PropOp28
 70
     1
102
RTVSPost2010Prop29
280
     1
102
RTVSPost2010PropOp29
 70
     1
102
RTVSPost2010Prop30
280
     1
102
RTVSPost2010PropOp30
 70
     1
102
RTVSPost2010Prop31
280
     0
102
RTVSPost2010PropOp31
 70
     1
102
RTVSPost2010Prop32
280
     0
102
RTVSPost2010PropOp32
 70
     1
102
RTVSPost2010Prop33
280
     0
102
RTVSPost2010PropOp33
 70
     1
102
RTVSPost2010Prop34
280
     0
102
RTVSPost2010PropOp34
 70
     1
102
RTVSPost2010Prop35
280
     0
102
RTVSPost2010PropOp35
 70
     1
102
RTVSPost2010Prop36
280
     0
102
RTVSPost2010PropOp36
 70
     1
102
RTVSPost2010Prop37
 90
       50
102
RTVSPost2010PropOp37
 70
     1
102
RTVSPost2010Prop38
140
0.0
102
RTVSPost2010PropOp38
 70
     1
102
RTVSPost2010Prop39
140
1.0
102
RTVSPost2010PropOp39
 70
     1
102
RTVSPost2010Prop40
 90
        0
102
RTVSPost2010PropOp40
 70
     1
102
RTVSPost2010Prop41ColorIndex
 90
       18
102
RTVSPost2010Prop41ColorRGB
 90
        0
102
RTVSPost2010PropOp41
 70
     1
102
RTVSPost2010Prop42
 90
       50
102
RTVSPost2010PropOp42
 70
     1
102
RTVSPost2010Prop43
 90
        3
102
RTVSPost2010PropOp43
 70
     1
102
RTVSPost2010Prop44ColorIndex
 90
        5
102
RTVSPost2010Prop44ColorRGB
 90
      255
102
RTVSPost2010PropOp44
 70
     1
102
RTVSPost2010Prop45
280
     0
102
RTVSPost2010PropOp45
 70
     1
102
RTVSPost2010Prop46
 90
       50
102
RTVSPost2010PropOp46
 70
     1
102
RTVSPost2010Prop47
 90
       50
102
RTVSPost2010PropOp47
 70
     1
102
RTVSPost2010Prop48
 90
       50
102
RTVSPost2010PropOp48
 70
     1
102
RTVSPost2010Prop49
280
     0
102
RTVSPost2010PropOp49
 70
     1
102
RTVSPost2010Prop50
 90
       50
102
RTVSPost2010PropOp50
 70
     1
102
RTVSPost2010Prop51ColorIndex
 90
      256
102
RTVSPost2010Prop51ColorRGB
 90
-16777216
102
RTVSPost2010PropOp51
 70
     0
102
RTVSPost2010Prop52
140
1.0
102
RTVSPost2010PropOp52
 70
     0
102
RTVSPost2010Prop53
 90
        2
102
RTVSPost2010PropOp53
 70
     1
102
RTVSPost2010Prop54
  1
strokes_ogs.tif
102
RTVSPost2010PropOp54
 70
     1
102
RTVSPost2010Prop55
280
     0
102
RTVSPost2010PropOp55
 70
     1
102
RTVSPost2010Prop56
140
1.0
102
RTVSPost2010PropOp56
 70
     1
102
RTVSPost2010Prop57
140
1.0
102
RTVSPost2010PropOp57
 70
     1
  0
XRECORD
  5
25E0
102
{ACAD_REACTORS
330
25DF
102
}
330
25DF
100
AcDbXrecord
280
     1
102
RTVSPropertyOp0
 70
     1
102
RTVSPropertyOp1
 70
     1
102
RTVSPropertyOp2
 70
     1
102
RTVSPropertyOp3
 70
     1
102
RTVSPropertyOp4
 70
     1
102
RTVSPropertyOp5
 70
     1
102
RTVSPropertyOp6
 70
     1
102
RTVSPropertyOp7
 70
     1
102
RTVSPropertyOp8
 70
     1
102
RTVSPropertyOp9
 70
     1
102
RTVSPropertyOp10
 70
     1
102
RTVSPropertyOp11
 70
     1
102
RTVSPropertyOp12
 70
     1
102
RTVSPropertyOp13
 70
     1
102
RTVSPropertyOp14
 70
     1
102
RTVSPropertyOp15
 70
     1
102
RTVSPropertyOp16
 70
     1
102
RTVSPropertyOp17
 70
     1
102
RTVSPropertyOp18
 70
     1
102
RTVSPropertyOp19
 70
     1
102
RTVSPropertyOp20
 70
     1
102
RTVSPropertyOp21
 70
     1
102
RTVSPropertyOp22
 70
     1
102
RTVSPropertyOp23
 70
     1
102
RTVSPropertyOp24
 70
     1
102
RTVSPropertyOp25
 70
     1
102
RTVSPropertyOp26
 70
     1
102
RTVSPropertyOp27
 70
     1
102
RTVSPropertyOp28
 70
     1
102
RTVSPropertyOp29
 70
     1
102
RTVSPropertyOp30
 70
     1
102
RTVSPropertyOp31
 70
     1
102
RTVSPropertyOp32
 70
     1
102
RTVSPropertyOp33
 70
     1
102
RTVSPropertyOp34
 70
     1
102
RTVSPropertyOp35
 70
     1
102
RTVSPropertyOp36
 70
     1
102
RTVSPropertyOp37
 70
     1
102
RTVSPropertyOp38
 70
     1
102
RTVSPropertyOp39
 70
     1
102
RTVSPropertyOp40
 70
     1
102
RTVSPropertyOp41
 70
     1
102
RTVSPropertyOp42
 70
     1
102
RTVSPropertyOp43
 70
     1
102
RTVSPropertyOp44
 70
     1
102
RTVSPropertyOp45
 70
     1
102
RTVSPropertyOp46
 70
     1
102
RTVSPropertyOp47
 70
     1
102
RTVSPropertyOp48
 70
     1
102
RTVSPropertyOp49
 70
     1
102
RTVSPropertyOp50
 70
     1
102
RTVSPropertyOp51
 70
     0
102
RTVSPropertyOp52
 70
     0
102
RTVSPropertyOp53
 70
     1
102
RTVSPropertyOp54
 70
     1
102
RTVSPropertyOp55
 70
     1
102
RTVSPropertyOp56
 70
     1
102
RTVSPropertyOp57
 70
     1
102
RTVSPost2010Prop28
280
     0
102
RTVSPost2010PropOp28
 70
     1
102
RTVSPost2010Prop29
280
     1
102
RTVSPost2010PropOp29
 70
     1
102
RTVSPost2010Prop30
280
     1
102
RTVSPost2010PropOp30
 70
     1
102
RTVSPost2010Prop31
280
     0
102
RTVSPost2010PropOp31
 70
     1
102
RTVSPost2010Prop32
280
     0
102
RTVSPost2010PropOp32
 70
     1
102
RTVSPost2010Prop33
280
     0
102
RTVSPost2010PropOp33
 70
     1
102
RTVSPost2010Prop34
280
     0
102
RTVSPost2010PropOp34
 70
     1
102
RTVSPost2010Prop35
280
     0
102
RTVSPost2010PropOp35
 70
     1
102
RTVSPost2010Prop36
280
     0
102
RTVSPost2010PropOp36
 70
     1
102
RTVSPost2010Prop37
 90
       50
102
RTVSPost2010PropOp37
 70
     1
102
RTVSPost2010Prop38
140
0.0
102
RTVSPost2010PropOp38
 70
     1
102
RTVSPost2010Prop39
140
1.0
102
RTVSPost2010PropOp39
 70
     1
102
RTVSPost2010Prop40
 90
        0
102
RTVSPost2010PropOp40
 70
     1
102
RTVSPost2010Prop41ColorIndex
 90
       18
102
RTVSPost2010Prop41ColorRGB
 90
        0
102
RTVSPost2010PropOp41
 70
     1
102
RTVSPost2010Prop42
 90
       50
102
RTVSPost2010PropOp42
 70
     1
102
RTVSPost2010Prop43
 90
        3
102
RTVSPost2010PropOp43
 70
     1
102
RTVSPost2010Prop44ColorIndex
 90
        5
102
RTVSPost2010Prop44ColorRGB
 90
      255
102
RTVSPost2010PropOp44
 70
     1
102
RTVSPost2010Prop45
280
     0
102
RTVSPost2010PropOp45
 70
     1
102
RTVSPost2010Prop46
 90
       50
102
RTVSPost2010PropOp46
 70
     1
102
RTVSPost2010Prop47
 90
       50
102
RTVSPost2010PropOp47
 70
     1
102
RTVSPost2010Prop48
 90
       50
102
RTVSPost2010PropOp48
 70
     1
102
RTVSPost2010Prop49
280
     0
102
RTVSPost2010PropOp49
 70
     1
102
RTVSPost2010Prop50
 90
       50
102
RTVSPost2010PropOp50
 70
     1
102
RTVSPost2010Prop51ColorIndex
 90
      256
102
RTVSPost2010Prop51ColorRGB
 90
-16777216
102
RTVSPost2010PropOp51
 70
     0
102
RTVSPost2010Prop52
140
1.0
102
RTVSPost2010PropOp52
 70
     0
102
RTVSPost2010Prop53
 90
        2
102
RTVSPost2010PropOp53
 70
     1
102
RTVSPost2010Prop54
  1
strokes_ogs.tif
102
RTVSPost2010PropOp54
 70
     1
102
RTVSPost2010Prop55
280
     0
102
RTVSPost2010PropOp55
 70
     1
102
RTVSPost2010Prop56
140
1.0
102
RTVSPost2010PropOp56
 70
     1
102
RTVSPost2010Prop57
140
1.0
102
RTVSPost2010PropOp57
 70
     1
  0
XRECORD
  5
25EE
102
{ACAD_REACTORS
330
25ED
102
}
330
25ED
100
AcDbXrecord
280
     1
102
RTVSPropertyOp0
 70
     1
102
RTVSPropertyOp1
 70
     1
102
RTVSPropertyOp2
 70
     1
102
RTVSPropertyOp3
 70
     1
102
RTVSPropertyOp4
 70
     1
102
RTVSPropertyOp5
 70
     1
102
RTVSPropertyOp6
 70
     1
102
RTVSPropertyOp7
 70
     1
102
RTVSPropertyOp8
 70
     1
102
RTVSPropertyOp9
 70
     1
102
RTVSPropertyOp10
 70
     1
102
RTVSPropertyOp11
 70
     1
102
RTVSPropertyOp12
 70
     1
102
RTVSPropertyOp13
 70
     1
102
RTVSPropertyOp14
 70
     1
102
RTVSPropertyOp15
 70
     1
102
RTVSPropertyOp16
 70
     1
102
RTVSPropertyOp17
 70
     1
102
RTVSPropertyOp18
 70
     1
102
RTVSPropertyOp19
 70
     1
102
RTVSPropertyOp20
 70
     1
102
RTVSPropertyOp21
 70
     1
102
RTVSPropertyOp22
 70
     1
102
RTVSPropertyOp23
 70
     1
102
RTVSPropertyOp24
 70
     1
102
RTVSPropertyOp25
 70
     1
102
RTVSPropertyOp26
 70
     1
102
RTVSPropertyOp27
 70
     1
102
RTVSPropertyOp28
 70
     1
102
RTVSPropertyOp29
 70
     1
102
RTVSPropertyOp30
 70
     1
102
RTVSPropertyOp31
 70
     1
102
RTVSPropertyOp32
 70
     1
102
RTVSPropertyOp33
 70
     1
102
RTVSPropertyOp34
 70
     1
102
RTVSPropertyOp35
 70
     1
102
RTVSPropertyOp36
 70
     1
102
RTVSPropertyOp37
 70
     1
102
RTVSPropertyOp38
 70
     1
102
RTVSPropertyOp39
 70
     1
102
RTVSPropertyOp40
 70
     1
102
RTVSPropertyOp41
 70
     1
102
RTVSPropertyOp42
 70
     1
102
RTVSPropertyOp43
 70
     1
102
RTVSPropertyOp44
 70
     1
102
RTVSPropertyOp45
 70
     1
102
RTVSPropertyOp46
 70
     1
102
RTVSPropertyOp47
 70
     1
102
RTVSPropertyOp48
 70
     1
102
RTVSPropertyOp49
 70
     1
102
RTVSPropertyOp50
 70
     1
102
RTVSPropertyOp51
 70
     0
102
RTVSPropertyOp52
 70
     0
102
RTVSPropertyOp53
 70
     1
102
RTVSPropertyOp54
 70
     1
102
RTVSPropertyOp55
 70
     1
102
RTVSPropertyOp56
 70
     1
102
RTVSPropertyOp57
 70
     1
102
RTVSPost2010Prop28
280
     0
102
RTVSPost2010PropOp28
 70
     1
102
RTVSPost2010Prop29
280
     1
102
RTVSPost2010PropOp29
 70
     1
102
RTVSPost2010Prop30
280
     1
102
RTVSPost2010PropOp30
 70
     1
102
RTVSPost2010Prop31
280
     0
102
RTVSPost2010PropOp31
 70
     1
102
RTVSPost2010Prop32
280
     0
102
RTVSPost2010PropOp32
 70
     1
102
RTVSPost2010Prop33
280
     0
102
RTVSPost2010PropOp33
 70
     1
102
RTVSPost2010Prop34
280
     0
102
RTVSPost2010PropOp34
 70
     1
102
RTVSPost2010Prop35
280
     0
102
RTVSPost2010PropOp35
 70
     1
102
RTVSPost2010Prop36
280
     0
102
RTVSPost2010PropOp36
 70
     1
102
RTVSPost2010Prop37
 90
       50
102
RTVSPost2010PropOp37
 70
     1
102
RTVSPost2010Prop38
140
0.0
102
RTVSPost2010PropOp38
 70
     1
102
RTVSPost2010Prop39
140
1.0
102
RTVSPost2010PropOp39
 70
     1
102
RTVSPost2010Prop40
 90
        0
102
RTVSPost2010PropOp40
 70
     1
102
RTVSPost2010Prop41ColorIndex
 90
       18
102
RTVSPost2010Prop41ColorRGB
 90
        0
102
RTVSPost2010PropOp41
 70
     1
102
RTVSPost2010Prop42
 90
       50
102
RTVSPost2010PropOp42
 70
     1
102
RTVSPost2010Prop43
 90
        3
102
RTVSPost2010PropOp43
 70
     1
102
RTVSPost2010Prop44ColorIndex
 90
        5
102
RTVSPost2010Prop44ColorRGB
 90
      255
102
RTVSPost2010PropOp44
 70
     1
102
RTVSPost2010Prop45
280
     0
102
RTVSPost2010PropOp45
 70
     1
102
RTVSPost2010Prop46
 90
       50
102
RTVSPost2010PropOp46
 70
     1
102
RTVSPost2010Prop47
 90
       50
102
RTVSPost2010PropOp47
 70
     1
102
RTVSPost2010Prop48
 90
       50
102
RTVSPost2010PropOp48
 70
     1
102
RTVSPost2010Prop49
280
     0
102
RTVSPost2010PropOp49
 70
     1
102
RTVSPost2010Prop50
 90
       50
102
RTVSPost2010PropOp50
 70
     1
102
RTVSPost2010Prop51ColorIndex
 90
      256
102
RTVSPost2010Prop51ColorRGB
 90
-16777216
102
RTVSPost2010PropOp51
 70
     0
102
RTVSPost2010Prop52
140
1.0
102
RTVSPost2010PropOp52
 70
     0
102
RTVSPost2010Prop53
 90
        2
102
RTVSPost2010PropOp53
 70
     1
102
RTVSPost2010Prop54
  1
strokes_ogs.tif
102
RTVSPost2010PropOp54
 70
     1
102
RTVSPost2010Prop55
280
     0
102
RTVSPost2010PropOp55
 70
     1
102
RTVSPost2010Prop56
140
1.0
102
RTVSPost2010PropOp56
 70
     1
102
RTVSPost2010Prop57
140
1.0
102
RTVSPost2010PropOp57
 70
     1
  0
ENDSEC
  0
EOF
