  0
SECTION
  2
HEADER
  9
$ACADVER
  1
AC1015
  9
$ACADMAINTVER
 70
     6
  9
$DWGCODEPAGE
  3
ANSI_932
  9
$INSBASE
 10
0.0
 20
0.0
 30
0.0
  9
$EXTMIN
 10
14.35637906336063
 20
7.021538256246743
 30
0.0
  9
$EXTMAX
 10
256.7554419466188
 20
112.8662857465243
 30
0.0
  9
$LIMMIN
 10
0.0
 20
0.0
  9
$LIMMAX
 10
12.0
 20
9.0
  9
$ORTHOMODE
 70
     0
  9
$REGENMODE
 70
     1
  9
$FILLMODE
 70
     1
  9
$QTEXTMODE
 70
     0
  9
$MIRRTEXT
 70
     1
  9
$LTSCALE
 40
1.0
  9
$ATTMODE
 70
     1
  9
$TEXTSIZE
 40
0.2
  9
$TRACEWID
 40
0.05
  9
$TEXTSTYLE
  7
Standard
  9
$CLAYER
  8
0
  9
$CELTYPE
  6
ByLayer
  9
$CECOLOR
 62
   256
  9
$CELTSCALE
 40
1.0
  9
$DISPSILH
 70
     0
  9
$DIMSCALE
 40
1.0
  9
$DIMASZ
 40
0.18
  9
$DIMEXO
 40
0.0625
  9
$DIMDLI
 40
0.38
  9
$DIMRND
 40
0.0
  9
$DIMDLE
 40
0.0
  9
$DIMEXE
 40
0.18
  9
$DIMTP
 40
0.0
  9
$DIMTM
 40
0.0
  9
$DIMTXT
 40
0.18
  9
$DIMCEN
 40
0.09
  9
$DIMTSZ
 40
0.0
  9
$DIMTOL
 70
     0
  9
$DIMLIM
 70
     0
  9
$DIMTIH
 70
     1
  9
$DIMTOH
 70
     1
  9
$DIMSE1
 70
     0
  9
$DIMSE2
 70
     0
  9
$DIMTAD
 70
     0
  9
$DIMZIN
 70
     0
  9
$DIMBLK
  1

  9
$DIMASO
 70
     1
  9
$DIMSHO
 70
     1
  9
$DIMPOST
  1

  9
$DIMAPOST
  1

  9
$DIMALT
 70
     0
  9
$DIMALTD
 70
     2
  9
$DIMALTF
 40
25.4
  9
$DIMLFAC
 40
1.0
  9
$DIMTOFL
 70
     0
  9
$DIMTVP
 40
0.0
  9
$DIMTIX
 70
     0
  9
$DIMSOXD
 70
     0
  9
$DIMSAH
 70
     0
  9
$DIMBLK1
  1

  9
$DIMBLK2
  1

  9
$DIMSTYLE
  2
Standard
  9
$DIMCLRD
 70
     0
  9
$DIMCLRE
 70
     0
  9
$DIMCLRT
 70
     0
  9
$DIMTFAC
 40
1.0
  9
$DIMGAP
 40
0.09
  9
$DIMJUST
 70
     0
  9
$DIMSD1
 70
     0
  9
$DIMSD2
 70
     0
  9
$DIMTOLJ
 70
     1
  9
$DIMTZIN
 70
     0
  9
$DIMALTZ
 70
     0
  9
$DIMALTTZ
 70
     0
  9
$DIMUPT
 70
     0
  9
$DIMDEC
 70
     4
  9
$DIMTDEC
 70
     4
  9
$DIMALTU
 70
     2
  9
$DIMALTTD
 70
     2
  9
$DIMTXSTY
  7
Standard
  9
$DIMAUNIT
 70
     0
  9
$DIMADEC
 70
     0
  9
$DIMALTRND
 40
0.0
  9
$DIMAZIN
 70
     0
  9
$DIMDSEP
 70
    46
  9
$DIMATFIT
 70
     3
  9
$DIMFRAC
 70
     0
  9
$DIMLDRBLK
  1

  9
$DIMLUNIT
 70
     2
  9
$DIMLWD
 70
    -2
  9
$DIMLWE
 70
    -2
  9
$DIMTMOVE
 70
     0
  9
$LUNITS
 70
     2
  9
$LUPREC
 70
     4
  9
$SKETCHINC
 40
0.1
  9
$FILLETRAD
 40
0.5
  9
$AUNITS
 70
     0
  9
$AUPREC
 70
     0
  9
$MENU
  1
.
  9
$ELEVATION
 40
0.0
  9
$PELEVATION
 40
0.0
  9
$THICKNESS
 40
0.0
  9
$LIMCHECK
 70
     0
  9
$CHAMFERA
 40
0.5
  9
$CHAMFERB
 40
0.5
  9
$CHAMFERC
 40
1.0
  9
$CHAMFERD
 40
0.0
  9
$SKPOLY
 70
     0
  9
$TDCREATE
 40
2459097.411035683
  9
$TDUCREATE
 40
2459097.036035683
  9
$TDUPDATE
 40
2459131.827965579
  9
$TDUUPDATE
 40
2459131.452965579
  9
$TDINDWG
 40
0.0037267361
  9
$TDUSRTIMER
 40
0.0037264815
  9
$USRTIMER
 70
     1
  9
$ANGBASE
 50
0.0
  9
$ANGDIR
 70
     0
  9
$PDMODE
 70
     0
  9
$PDSIZE
 40
0.0
  9
$PLINEWID
 40
0.0
  9
$SPLFRAME
 70
     0
  9
$SPLINETYPE
 70
     6
  9
$SPLINESEGS
 70
     8
  9
$HANDSEED
  5
84C
  9
$SURFTAB1
 70
     6
  9
$SURFTAB2
 70
     6
  9
$SURFTYPE
 70
     6
  9
$SURFU
 70
     6
  9
$SURFV
 70
     6
  9
$UCSBASE
  2

  9
$UCSNAME
  2

  9
$UCSORG
 10
0.0
 20
0.0
 30
0.0
  9
$UCSXDIR
 10
1.0
 20
0.0
 30
0.0
  9
$UCSYDIR
 10
0.0
 20
1.0
 30
0.0
  9
$UCSORTHOREF
  2

  9
$UCSORTHOVIEW
 70
     0
  9
$UCSORGTOP
 10
0.0
 20
0.0
 30
0.0
  9
$UCSORGBOTTOM
 10
0.0
 20
0.0
 30
0.0
  9
$UCSORGLEFT
 10
0.0
 20
0.0
 30
0.0
  9
$UCSORGRIGHT
 10
0.0
 20
0.0
 30
0.0
  9
$UCSORGFRONT
 10
0.0
 20
0.0
 30
0.0
  9
$UCSORGBACK
 10
0.0
 20
0.0
 30
0.0
  9
$PUCSBASE
  2

  9
$PUCSNAME
  2

  9
$PUCSORG
 10
0.0
 20
0.0
 30
0.0
  9
$PUCSXDIR
 10
1.0
 20
0.0
 30
0.0
  9
$PUCSYDIR
 10
0.0
 20
1.0
 30
0.0
  9
$PUCSORTHOREF
  2

  9
$PUCSORTHOVIEW
 70
     0
  9
$PUCSORGTOP
 10
0.0
 20
0.0
 30
0.0
  9
$PUCSORGBOTTOM
 10
0.0
 20
0.0
 30
0.0
  9
$PUCSORGLEFT
 10
0.0
 20
0.0
 30
0.0
  9
$PUCSORGRIGHT
 10
0.0
 20
0.0
 30
0.0
  9
$PUCSORGFRONT
 10
0.0
 20
0.0
 30
0.0
  9
$PUCSORGBACK
 10
0.0
 20
0.0
 30
0.0
  9
$USERI1
 70
     0
  9
$USERI2
 70
     0
  9
$USERI3
 70
     0
  9
$USERI4
 70
     0
  9
$USERI5
 70
     0
  9
$USERR1
 40
0.0
  9
$USERR2
 40
0.0
  9
$USERR3
 40
0.0
  9
$USERR4
 40
0.0
  9
$USERR5
 40
0.0
  9
$WORLDVIEW
 70
     1
  9
$SHADEDGE
 70
     3
  9
$SHADEDIF
 70
    70
  9
$TILEMODE
 70
     1
  9
$MAXACTVP
 70
    64
  9
$PINSBASE
 10
0.0
 20
0.0
 30
0.0
  9
$PLIMCHECK
 70
     0
  9
$PEXTMIN
 10
1.000000000000000E+20
 20
1.000000000000000E+20
 30
1.000000000000000E+20
  9
$PEXTMAX
 10
-1.000000000000000E+20
 20
-1.000000000000000E+20
 30
-1.000000000000000E+20
  9
$PLIMMIN
 10
0.0
 20
0.0
  9
$PLIMMAX
 10
12.0
 20
9.0
  9
$UNITMODE
 70
     0
  9
$VISRETAIN
 70
     1
  9
$PLINEGEN
 70
     0
  9
$PSLTSCALE
 70
     1
  9
$TREEDEPTH
 70
  3020
  9
$CMLSTYLE
  2
Standard
  9
$CMLJUST
 70
     0
  9
$CMLSCALE
 40
1.0
  9
$PROXYGRAPHICS
 70
     1
  9
$MEASUREMENT
 70
     0
  9
$CELWEIGHT
370
    -1
  9
$ENDCAPS
280
     0
  9
$JOINSTYLE
280
     0
  9
$LWDISPLAY
290
     1
  9
$INSUNITS
 70
     1
  9
$HYPERLINKBASE
  1

  9
$STYLESHEET
  1

  9
$XEDIT
290
     1
  9
$CEPSNTYPE
380
     0
  9
$PSTYLEMODE
290
     1
  9
$FINGERPRINTGUID
  2
{311E1F52-C1A0-4169-BEC4-D9E84CA4405F}
  9
$VERSIONGUID
  2
{FAEB1C32-E019-11D5-929B-00C0DF256EC4}
  9
$EXTNAMES
290
     1
  9
$PSVPSCALE
 40
0.0
  9
$OLESTARTUP
290
     0
  0
ENDSEC
  0
SECTION
  2
CLASSES
  0
CLASS
  1
ACDBDICTIONARYWDFLT
  2
AcDbDictionaryWithDefault
  3
ObjectDBX Classes
 90
        0
280
     0
281
     0
  0
CLASS
  1
VISUALSTYLE
  2
AcDbVisualStyle
  3
ObjectDBX Classes
 90
     4095
280
     0
281
     0
  0
CLASS
  1
ACDBPLACEHOLDER
  2
AcDbPlaceHolder
  3
ObjectDBX Classes
 90
        0
280
     0
281
     0
  0
CLASS
  1
LAYOUT
  2
AcDbLayout
  3
ObjectDBX Classes
 90
        0
280
     0
281
     0
  0
CLASS
  1
SCALE
  2
AcDbScale
  3
ObjectDBX Classes
 90
     1153
280
     0
281
     0
  0
CLASS
  1
MATERIAL
  2
AcDbMaterial
  3
ObjectDBX Classes
 90
     1153
280
     0
281
     0
  0
CLASS
  1
TABLESTYLE
  2
AcDbTableStyle
  3
ObjectDBX Classes
 90
     4095
280
     0
281
     0
  0
CLASS
  1
MLEADERSTYLE
  2
AcDbMLeaderStyle
  3
ACDB_MLEADERSTYLE_CLASS
 90
     4095
280
     0
281
     0
  0
CLASS
  1
DICTIONARYVAR
  2
AcDbDictionaryVar
  3
ObjectDBX Classes
 90
        0
280
     0
281
     0
  0
ENDSEC
  0
SECTION
  2
TABLES
  0
TABLE
  2
VPORT
  5
8
102
{ACAD_XDICTIONARY
360
80E
102
}
330
0
100
AcDbSymbolTable
 70
     1
  0
VPORT
  5
29
330
8
100
AcDbSymbolTableRecord
100
AcDbViewportTableRecord
  2
*Active
 70
     0
 10
0.0
 20
0.0
 11
1.0
 21
1.0
 12
-177.1039816790456
 22
-86.36452382706631
 13
0.0
 23
0.0
 14
0.5
 24
0.5
 15
0.5
 25
0.5
 16
0.0
 26
0.0
 36
1.0
 17
315.0000663817535
 27
148.5000657452101
 37
0.0
 40
163.6328028849575
 41
2.076547231270359
 42
50.0
 43
0.0
 44
0.0
 50
0.0
 51
0.0
 71
     0
 72
   100
 73
     1
 74
     3
 75
     0
 76
     0
 77
     0
 78
     0
281
     0
 65
     1
110
0.0
120
0.0
130
0.0
111
1.0
121
0.0
131
0.0
112
0.0
122
1.0
132
0.0
 79
     0
146
0.0
  0
ENDTAB
  0
TABLE
  2
LTYPE
  5
5
330
0
100
AcDbSymbolTable
 70
     1
  0
LTYPE
  5
14
330
5
100
AcDbSymbolTableRecord
100
AcDbLinetypeTableRecord
  2
ByBlock
 70
     0
  3

 72
    65
 73
     0
 40
0.0
  0
LTYPE
  5
15
330
5
100
AcDbSymbolTableRecord
100
AcDbLinetypeTableRecord
  2
ByLayer
 70
     0
  3

 72
    65
 73
     0
 40
0.0
  0
LTYPE
  5
16
330
5
100
AcDbSymbolTableRecord
100
AcDbLinetypeTableRecord
  2
Continuous
 70
     0
  3
Solid line
 72
    65
 73
     0
 40
0.0
  0
ENDTAB
  0
TABLE
  2
LAYER
  5
2
330
0
100
AcDbSymbolTable
 70
     2
  0
LAYER
  5
10
330
2
100
AcDbSymbolTableRecord
100
AcDbLayerTableRecord
  2
0
 70
     0
 62
     7
  6
Continuous
370
    -3
390
F
  0
LAYER
  5
3B
330
2
100
AcDbSymbolTableRecord
100
AcDbLayerTableRecord
  2
レイヤー 1
 70
     0
 62
     7
  6
Continuous
370
    -3
390
F
  0
ENDTAB
  0
TABLE
  2
STYLE
  5
3
330
0
100
AcDbSymbolTable
 70
     2
  0
STYLE
  5
11
330
3
100
AcDbSymbolTableRecord
100
AcDbTextStyleTableRecord
  2
Standard
 70
     0
 40
0.0
 41
1.0
 50
0.0
 71
     0
 42
0.2
  3
txt
  4

  0
STYLE
  5
7E4
330
3
100
AcDbSymbolTableRecord
100
AcDbTextStyleTableRecord
  2
KANJI
 70
     0
 40
0.0
 41
1.0
 50
0.0
 71
     0
 42
4.0
  3
TXT
  4
BIGFONT
  0
ENDTAB
  0
TABLE
  2
VIEW
  5
6
330
0
100
AcDbSymbolTable
 70
     0
  0
ENDTAB
  0
TABLE
  2
UCS
  5
7
330
0
100
AcDbSymbolTable
 70
     0
  0
ENDTAB
  0
TABLE
  2
APPID
  5
9
330
0
100
AcDbSymbolTable
 70
     2
  0
APPID
  5
12
330
9
100
AcDbSymbolTableRecord
100
AcDbRegAppTableRecord
  2
ACAD
 70
     0
  0
APPID
  5
7D5
330
9
100
AcDbSymbolTableRecord
100
AcDbRegAppTableRecord
  2
ACAD_MLEADERVER
 70
     0
  0
ENDTAB
  0
TABLE
  2
DIMSTYLE
  5
A
330
0
100
AcDbSymbolTable
 70
     1
100
AcDbDimStyleTable
  0
DIMSTYLE
105
27
330
A
100
AcDbSymbolTableRecord
100
AcDbDimStyleTableRecord
  2
Standard
 70
     0
178
     0
340
11
  0
ENDTAB
  0
TABLE
  2
BLOCK_RECORD
  5
1
330
0
100
AcDbSymbolTable
 70
     1
  0
BLOCK_RECORD
  5
1F
330
1
100
AcDbSymbolTableRecord
100
AcDbBlockTableRecord
  2
*Model_Space
340
22
  0
BLOCK_RECORD
  5
1B
330
1
100
AcDbSymbolTableRecord
100
AcDbBlockTableRecord
  2
*Paper_Space
340
1E
  0
BLOCK_RECORD
  5
23
330
1
100
AcDbSymbolTableRecord
100
AcDbBlockTableRecord
  2
*Paper_Space0
340
26
  0
ENDTAB
  0
ENDSEC
  0
SECTION
  2
BLOCKS
  0
BLOCK
  5
20
330
1F
100
AcDbEntity
  8
0
100
AcDbBlockBegin
  2
*Model_Space
 70
     0
 10
0.0
 20
0.0
 30
0.0
  3
*Model_Space
  1

  0
ENDBLK
  5
21
330
1F
100
AcDbEntity
  8
0
100
AcDbBlockEnd
  0
BLOCK
  5
1C
330
1B
100
AcDbEntity
 67
     1
  8
0
100
AcDbBlockBegin
  2
*Paper_Space
 70
     0
 10
0.0
 20
0.0
 30
0.0
  3
*Paper_Space
  1

  0
ENDBLK
  5
1D
330
1B
100
AcDbEntity
 67
     1
  8
0
100
AcDbBlockEnd
  0
BLOCK
  5
24
330
23
100
AcDbEntity
  8
0
100
AcDbBlockBegin
  2
*Paper_Space0
 70
     0
 10
0.0
 20
0.0
 30
0.0
  3
*Paper_Space0
  1

  0
ENDBLK
  5
25
330
23
100
AcDbEntity
  8
0
100
AcDbBlockEnd
  0
ENDSEC
  0
SECTION
  2
ENTITIES
  0
SPLINE
  5
3C
330
1F
100
AcDbEntity
  8
レイヤー 1
 62
     7
370
     9
100
AcDbSpline
210
0.0
220
0.0
230
1.0
 70
     8
 71
     3
 72
     8
 73
     4
 74
     0
 42
0.000000001
 43
0.0000000001
 40
0.0
 40
0.0
 40
0.0
 40
0.0
 40
1.0
 40
1.0
 40
1.0
 40
1.0
 10
57.46279181300071
 20
42.14535759010755
 30
0.0
 10
57.13619676099898
 20
41.96345654848636
 30
0.0
 10
56.89090596244915
 20
41.51421609720978
 30
0.0
 10
56.91295457355483
 20
41.14145676570575
 30
0.0
  0
SPLINE
  5
3D
330
1F
100
AcDbEntity
  8
レイヤー 1
 62
     7
370
     9
100
AcDbSpline
210
0.0
220
0.0
230
1.0
 70
     8
 71
     3
 72
    11
 73
     7
 74
     0
 42
0.000000001
 43
0.0000000001
 40
0.0
 40
0.0
 40
0.0
 40
0.0
 40
1.0
 40
1.0
 40
1.0
 40
2.0
 40
2.0
 40
2.0
 40
2.0
 10
56.91226555445775
 20
41.14145676570575
 30
0.0
 10
56.91777770723417
 20
40.49308979538174
 30
0.0
 10
57.4476333928655
 20
39.97356939620606
 30
0.0
 10
58.09668938228657
 20
39.97770351078836
 30
0.0
 10
58.30615118778979
 20
39.96736822433262
 30
0.0
 10
58.62172193423868
 20
40.07278814618125
 30
0.0
 10
58.78295240294841
 20
40.20783588920305
 30
0.0
  0
LWPOLYLINE
  5
3E
330
1F
100
AcDbEntity
  8
レイヤー 1
 62
     7
370
     9
100
AcDbPolyline
 90
        2
 70
     0
 43
0.0
 10
58.78364142204549
 20
40.20783588920305
 10
63.62951273159791
 20
43.79280225115403
  0
LWPOLYLINE
  5
42
330
1F
100
AcDbEntity
  8
レイヤー 1
 62
     7
370
     9
100
AcDbPolyline
 90
        2
 70
     0
 43
0.0
 10
63.34632588271035
 20
45.83436583571309
 10
57.46279181300071
 20
42.14466857101051
  0
LWPOLYLINE
  5
56
330
1F
100
AcDbEntity
  8
レイヤー 1
 62
     7
370
     9
100
AcDbPolyline
 90
        2
 70
     0
 43
0.0
 10
14.69882155459442
 20
17.89670850762805
 10
14.35637906336063
 20
16.69574822146996
  0
LWPOLYLINE
  5
5A
330
1F
100
AcDbEntity
  8
レイヤー 1
 62
     7
370
     9
100
AcDbPolyline
 90
        2
 70
     0
 43
0.0
 10
36.92313252994114
 20
10.27477925606131
 10
37.26488600207796
 20
11.47642856131645
  0
LWPOLYLINE
  5
5E
330
1F
100
AcDbEntity
  8
レイヤー 1
 62
     7
370
     9
100
AcDbPolyline
 90
        2
 70
     0
 43
0.0
 10
37.30760518609503
 20
11.6259457053763
 10
60.38905591817189
 20
92.75243223023358
  0
LWPOLYLINE
  5
62
330
1F
100
AcDbEntity
  8
レイヤー 1
 62
     7
370
     9
100
AcDbPolyline
 90
        2
 70
     0
 43
0.0
 10
37.8216134324943
 20
99.17271217654516
 10
14.74154073861149
 20
18.0489817280761
  0
LWPOLYLINE
  5
66
330
1F
100
AcDbEntity
  8
レイヤー 1
 62
     7
370
     9
100
AcDbPolyline
 90
        2
 70
     0
 43
0.0
 10
61.90903204626414
 20
82.98903162503552
 10
57.13757479919303
 20
81.327117562951
  0
LWPOLYLINE
  5
6A
330
1F
100
AcDbEntity
  8
レイヤー 1
 62
     7
370
     9
100
AcDbPolyline
 90
        2
 70
     0
 43
0.0
 10
54.26160908810647
 20
71.21300623735453
 10
64.74158955423655
 20
74.86618548991348
  0
SPLINE
  5
6E
330
1F
100
AcDbEntity
  8
レイヤー 1
 62
     7
370
     9
100
AcDbSpline
210
0.0
220
0.0
230
1.0
 70
     8
 71
     3
 72
     8
 73
     4
 74
     0
 42
0.000000001
 43
0.0000000001
 40
0.0
 40
0.0
 40
0.0
 40
0.0
 40
1.0
 40
1.0
 40
1.0
 40
1.0
 10
99.2600682782458
 20
14.18289557452873
 30
0.0
 10
99.27936081296315
 20
14.17945047904348
 30
0.0
 10
99.31243372962166
 20
14.18151753633462
 30
0.0
 10
99.33172626433901
 20
14.18840772730513
 30
0.0
  0
LWPOLYLINE
  5
6F
330
1F
100
AcDbEntity
  8
レイヤー 1
 62
     7
370
     9
100
AcDbPolyline
 90
        2
 70
     0
 43
0.0
 10
99.33103724524193
 20
14.18840772730513
 10
101.6599217932707
 20
14.91394483649874
  0
SPLINE
  5
73
330
1F
100
AcDbEntity
  8
レイヤー 1
 62
     7
370
     9
100
AcDbSpline
210
0.0
220
0.0
230
1.0
 70
     8
 71
     3
 72
     8
 73
     4
 74
     0
 42
0.000000001
 43
0.0000000001
 40
0.0
 40
0.0
 40
0.0
 40
0.0
 40
1.0
 40
1.0
 40
1.0
 40
1.0
 10
33.34850145444585
 20
111.994668553548
 30
0.0
 10
33.2899348311966
 20
111.9753760188306
 30
0.0
 10
33.2451485898884
 20
111.9092301855138
 30
0.0
 10
33.24790466627661
 20
111.8479074858764
 30
0.0
  0
LWPOLYLINE
  5
74
330
1F
100
AcDbEntity
  8
レイヤー 1
 62
     7
370
     9
100
AcDbPolyline
 90
        2
 70
     0
 43
0.0
 10
33.24790466627661
 20
111.8479074858764
 10
33.46839077733256
 20
83.8737321456477
  0
LWPOLYLINE
  5
78
330
1F
100
AcDbEntity
  8
レイヤー 1
 62
     7
370
     9
100
AcDbPolyline
 90
        2
 70
     0
 43
0.0
 10
35.58161234798484
 20
112.8607655585398
 10
33.34850145444585
 20
111.993979534451
  0
LWPOLYLINE
  5
7C
330
1F
100
AcDbEntity
  8
レイヤー 1
 62
     7
370
     9
100
AcDbPolyline
 90
        2
 70
     0
 43
0.0
 10
101.2051691892179
 20
84.73293895966899
 10
101.2024131128296
 20
85.03266226688572
  0
LWPOLYLINE
  5
80
330
1F
100
AcDbEntity
  8
レイヤー 1
 62
     7
370
     9
100
AcDbPolyline
 90
        2
 70
     0
 43
0.0
 10
101.1762303871416
 20
85.02370501862407
 10
101.2024131128296
 20
85.03266226688572
  0
SPLINE
  5
84
330
1F
100
AcDbEntity
  8
レイヤー 1
 62
     7
370
     9
100
AcDbSpline
210
0.0
220
0.0
230
1.0
 70
     8
 71
     3
 72
     8
 73
     4
 74
     0
 42
0.000000001
 43
0.0000000001
 40
0.0
 40
0.0
 40
0.0
 40
0.0
 40
1.0
 40
1.0
 40
1.0
 40
1.0
 10
64.93106980592523
 20
47.84561258000194
 30
0.0
 10
64.92693569134298
 20
47.85112473277835
 30
0.0
 10
64.91797844308127
 20
47.86283805742819
 30
0.0
 10
64.91384432849901
 20
47.86766119110754
 30
0.0
  0
LWPOLYLINE
  5
85
330
1F
100
AcDbEntity
  8
レイヤー 1
 62
     7
370
     9
100
AcDbPolyline
 90
        2
 70
     0
 43
0.0
 10
64.93106980592523
 20
47.84561258000194
 10
64.8153145976209
 20
47.5334869290383
  0
LWPOLYLINE
  5
89
330
1F
100
AcDbEntity
  8
レイヤー 1
 62
     7
370
     9
100
AcDbPolyline
 90
        2
 70
     0
 43
0.0
 10
64.8153145976209
 20
47.5334869290383
 10
65.15362297427242
 20
47.5417551582029
  0
SPLINE
  5
8D
330
1F
100
AcDbEntity
  8
レイヤー 1
 62
     7
370
     9
100
AcDbSpline
210
0.0
220
0.0
230
1.0
 70
     8
 71
     3
 72
     8
 73
     4
 74
     0
 42
0.000000001
 43
0.0000000001
 40
0.0
 40
0.0
 40
0.0
 40
0.0
 40
1.0
 40
1.0
 40
1.0
 40
1.0
 10
65.1722264898927
 20
47.51832850890321
 30
0.0
 10
65.16740335621336
 20
47.52452968077665
 30
0.0
 10
65.15913512704884
 20
47.5362430054265
 30
0.0
 10
65.15500101246647
 20
47.5417551582029
 30
0.0
  0
LWPOLYLINE
  5
8E
330
1F
100
AcDbEntity
  8
レイヤー 1
 62
     7
370
     9
100
AcDbPolyline
 90
        2
 70
     0
 43
0.0
 10
65.1722264898927
 20
47.51832850890321
 10
65.03648972777393
 20
47.20895893432777
  0
LWPOLYLINE
  5
92
330
1F
100
AcDbEntity
  8
レイヤー 1
 62
     7
370
     9
100
AcDbPolyline
 90
        2
 70
     0
 43
0.0
 10
65.03648972777393
 20
47.21033697252187
 10
65.37548712352253
 20
47.19517855238676
  0
SPLINE
  5
96
330
1F
100
AcDbEntity
  8
レイヤー 1
 62
     7
370
     9
100
AcDbSpline
210
0.0
220
0.0
230
1.0
 70
     8
 71
     3
 72
     8
 73
     4
 74
     0
 42
0.000000001
 43
0.0000000001
 40
0.0
 40
0.0
 40
0.0
 40
0.0
 40
1.0
 40
1.0
 40
1.0
 40
1.0
 10
65.3913345627546
 20
47.16968484579593
 30
0.0
 10
65.38788946726942
 20
47.17588601766937
 30
0.0
 10
65.37962123810479
 20
47.18966639961037
 30
0.0
 10
65.37686516171658
 20
47.19586757148382
 30
0.0
  0
LWPOLYLINE
  5
97
330
1F
100
AcDbEntity
  8
レイヤー 1
 62
     7
370
     9
100
AcDbPolyline
 90
        2
 70
     0
 43
0.0
 10
65.3913345627546
 20
47.16968484579593
 10
65.23768330411252
 20
46.86927251948214
  0
LWPOLYLINE
  5
9B
330
1F
100
AcDbEntity
  8
レイヤー 1
 62
     7
370
     9
100
AcDbPolyline
 90
        2
 70
     0
 43
0.0
 10
65.23768330411252
 20
46.86927251948214
 10
65.57668069986102
 20
46.83137646914439
  0
SPLINE
  5
9F
330
1F
100
AcDbEntity
  8
レイヤー 1
 62
     7
370
     9
100
AcDbSpline
210
0.0
220
0.0
230
1.0
 70
     8
 71
     3
 72
     8
 73
     4
 74
     0
 42
0.000000001
 43
0.0000000001
 40
0.0
 40
0.0
 40
0.0
 40
0.0
 40
1.0
 40
1.0
 40
1.0
 40
1.0
 10
65.58908304360801
 20
46.80450472435943
 30
0.0
 10
65.58563794812272
 20
46.81001687713584
 30
0.0
 10
65.57943677624922
 20
46.82379725907684
 30
0.0
 10
65.57668069986102
 20
46.83137646914439
 30
0.0
  0
LWPOLYLINE
  5
A0
330
1F
100
AcDbEntity
  8
レイヤー 1
 62
     7
370
     9
100
AcDbPolyline
 90
        2
 70
     0
 43
0.0
 10
65.58908304360801
 20
46.80450472435943
 10
65.41751728844253
 20
46.51098258901615
  0
LWPOLYLINE
  5
A4
330
1F
100
AcDbEntity
  8
レイヤー 1
 62
     7
370
     9
100
AcDbPolyline
 90
        2
 70
     0
 43
0.0
 10
65.41751728844253
 20
46.51098258901615
 10
65.75306958870584
 20
46.45034890847576
  0
SPLINE
  5
A8
330
1F
100
AcDbEntity
  8
レイヤー 1
 62
     7
370
     9
100
AcDbSpline
210
0.0
220
0.0
230
1.0
 70
     8
 71
     3
 72
     8
 73
     4
 74
     0
 42
0.000000001
 43
0.0000000001
 40
0.0
 40
0.0
 40
0.0
 40
0.0
 40
1.0
 40
1.0
 40
1.0
 40
1.0
 10
65.7634048751616
 20
46.42278814459375
 30
0.0
 10
65.76133781787047
 20
46.42898931646721
 30
0.0
 10
65.7544476269
 20
46.44345871750525
 30
0.0
 10
65.7516915505118
 20
46.45034890847576
 30
0.0
  0
LWPOLYLINE
  5
A9
330
1F
100
AcDbEntity
  8
レイヤー 1
 62
     7
370
     9
100
AcDbPolyline
 90
        2
 70
     0
 43
0.0
 10
65.7634048751616
 20
46.42278814459375
 10
65.57392462347292
 20
46.14029031480327
  0
LWPOLYLINE
  5
AD
330
1F
100
AcDbEntity
  8
レイヤー 1
 62
     7
370
     9
100
AcDbPolyline
 90
        2
 70
     0
 43
0.0
 10
65.57392462347292
 20
46.14029031480327
 10
65.9046537900569
 20
46.05760802315727
  0
SPLINE
  5
B1
330
1F
100
AcDbEntity
  8
レイヤー 1
 62
     7
370
     9
100
AcDbSpline
210
0.0
220
0.0
230
1.0
 70
     8
 71
     3
 72
     8
 73
     4
 74
     0
 42
0.000000001
 43
0.0000000001
 40
0.0
 40
0.0
 40
0.0
 40
0.0
 40
1.0
 40
1.0
 40
1.0
 40
1.0
 10
65.91498907651265
 20
46.02935824017823
 30
0.0
 10
65.91223300012444
 20
46.03693745024577
 30
0.0
 10
65.90740986644511
 20
46.05002881308972
 30
0.0
 10
65.9046537900569
 20
46.05760802315727
 30
0.0
  0
LWPOLYLINE
  5
B2
330
1F
100
AcDbEntity
  8
レイヤー 1
 62
     7
370
     9
100
AcDbPolyline
 90
        2
 70
     0
 43
0.0
 10
65.91498907651265
 20
46.02935824017823
 10
65.70621629010651
 20
45.75995177323169
  0
LWPOLYLINE
  5
B6
330
1F
100
AcDbEntity
  8
レイヤー 1
 62
     7
370
     9
100
AcDbPolyline
 90
        2
 70
     0
 43
0.0
 10
65.70621629010651
 20
45.75995177323169
 10
66.03005526571991
 20
45.65590988957715
  0
SPLINE
  5
BA
330
1F
100
AcDbEntity
  8
レイヤー 1
 62
     7
370
     9
100
AcDbSpline
210
0.0
220
0.0
230
1.0
 70
     8
 71
     3
 72
     8
 73
     4
 74
     0
 42
0.000000001
 43
0.0000000001
 40
0.0
 40
0.0
 40
0.0
 40
0.0
 40
1.0
 40
1.0
 40
1.0
 40
1.0
 10
66.03901251398162
 20
45.6276601065981
 30
0.0
 10
66.03625643759341
 20
45.63523931666565
 30
0.0
 10
66.03143330391407
 20
45.64901969860664
 30
0.0
 10
66.03005526571991
 20
45.65590988957715
 30
0.0
  0
LWPOLYLINE
  5
BB
330
1F
100
AcDbEntity
  8
レイヤー 1
 62
     7
370
     9
100
AcDbPolyline
 90
        2
 70
     0
 43
0.0
 10
66.03901251398162
 20
45.6276601065981
 10
65.81232523105217
 20
45.3713450024955
  0
LWPOLYLINE
  5
BF
330
1F
100
AcDbEntity
  8
レイヤー 1
 62
     7
370
     9
100
AcDbPolyline
 90
        2
 70
     0
 43
0.0
 10
65.81232523105217
 20
45.3713450024955
 10
66.12858499659814
 20
45.24869960322062
  0
SPLINE
  5
C3
330
1F
100
AcDbEntity
  8
レイヤー 1
 62
     7
370
     9
100
AcDbSpline
210
0.0
220
0.0
230
1.0
 70
     8
 71
     3
 72
     8
 73
     4
 74
     0
 42
0.000000001
 43
0.0000000001
 40
0.0
 40
0.0
 40
0.0
 40
0.0
 40
1.0
 40
1.0
 40
1.0
 40
1.0
 10
66.13478616847152
 20
45.21976080114452
 30
0.0
 10
66.13271911118039
 20
45.22665099211501
 30
0.0
 10
66.13065205388926
 20
45.24112039315307
 30
0.0
 10
66.12858499659814
 20
45.24869960322062
 30
0.0
  0
LWPOLYLINE
  5
C4
330
1F
100
AcDbEntity
  8
レイヤー 1
 62
     7
370
     9
100
AcDbPolyline
 90
        2
 70
     0
 43
0.0
 10
66.13478616847152
 20
45.21976080114452
 10
65.89294046540698
 20
44.97860411717703
  0
LWPOLYLINE
  5
C8
330
1F
100
AcDbEntity
  8
レイヤー 1
 62
     7
370
     9
100
AcDbPolyline
 90
        2
 70
     0
 43
0.0
 10
65.89294046540698
 20
44.97860411717703
 10
66.20093200178832
 20
44.83873324047588
  0
SPLINE
  5
CC
330
1F
100
AcDbEntity
  8
レイヤー 1
 62
     7
370
     9
100
AcDbSpline
210
0.0
220
0.0
230
1.0
 70
     8
 71
     3
 72
     8
 73
     4
 74
     0
 42
0.000000001
 43
0.0000000001
 40
0.0
 40
0.0
 40
0.0
 40
0.0
 40
1.0
 40
1.0
 40
1.0
 40
1.0
 10
66.2043770972736
 20
44.80910541930274
 30
0.0
 10
66.20299905907945
 20
44.81599561027323
 30
0.0
 10
66.2016210208854
 20
44.83115403040833
 30
0.0
 10
66.20024298269124
 20
44.83873324047588
 30
0.0
  0
LWPOLYLINE
  5
CD
330
1F
100
AcDbEntity
  8
レイヤー 1
 62
     7
370
     9
100
AcDbPolyline
 90
        2
 70
     0
 43
0.0
 10
66.2043770972736
 20
44.80910541930274
 10
65.94668395497689
 20
44.58724127005264
  0
LWPOLYLINE
  5
D1
330
1F
100
AcDbEntity
  8
レイヤー 1
 62
     7
370
     9
100
AcDbPolyline
 90
        2
 70
     0
 43
0.0
 10
65.94668395497689
 20
44.58724127005264
 10
66.24296216670842
 20
44.42876687773115
  0
SPLINE
  5
D5
330
1F
100
AcDbEntity
  8
レイヤー 1
 62
     7
370
     9
100
AcDbSpline
210
0.0
220
0.0
230
1.0
 70
     8
 71
     3
 72
     8
 73
     4
 74
     0
 42
0.000000001
 43
0.0000000001
 40
0.0
 40
0.0
 40
0.0
 40
0.0
 40
1.0
 40
1.0
 40
1.0
 40
1.0
 10
66.24502922399955
 20
44.39982807565505
 30
0.0
 10
66.24434020490247
 20
44.4074072857226
 30
0.0
 10
66.24365118580539
 20
44.42187668676065
 30
0.0
 10
66.24296216670842
 20
44.42876687773115
 30
0.0
  0
LWPOLYLINE
  5
D6
330
1F
100
AcDbEntity
  8
レイヤー 1
 62
     7
370
     9
100
AcDbPolyline
 90
        2
 70
     0
 43
0.0
 10
66.24502922399955
 20
44.39982807565505
 10
65.97217766156774
 20
44.19656744202531
  0
LWPOLYLINE
  5
DA
330
1F
100
AcDbEntity
  8
レイヤー 1
 62
     7
370
     9
100
AcDbPolyline
 90
        2
 70
     0
 43
0.0
 10
65.97217766156774
 20
44.19656744202531
 10
66.25605352955239
 20
44.02431266776281
  0
SPLINE
  5
DE
330
1F
100
AcDbEntity
  8
レイヤー 1
 62
     7
370
     9
100
AcDbSpline
210
0.0
220
0.0
230
1.0
 70
     8
 71
     3
 72
     8
 73
     4
 74
     0
 42
0.000000001
 43
0.0000000001
 40
0.0
 40
0.0
 40
0.0
 40
0.0
 40
1.0
 40
1.0
 40
1.0
 40
1.0
 10
66.25605352955239
 20
43.99468484658968
 30
0.0
 10
66.25674254864936
 20
44.00226405665722
 30
0.0
 10
66.25674254864936
 20
44.01742247679232
 30
0.0
 10
66.25674254864936
 20
44.02431266776281
 30
0.0
  0
LWPOLYLINE
  5
DF
330
1F
100
AcDbEntity
  8
レイヤー 1
 62
     7
370
     9
100
AcDbPolyline
 90
        2
 70
     0
 43
0.0
 10
66.25605352955239
 20
43.99468484658968
 10
65.9707996233737
 20
43.81209478587142
  0
LWPOLYLINE
  5
E3
330
1F
100
AcDbEntity
  8
レイヤー 1
 62
     7
370
     9
100
AcDbPolyline
 90
        2
 70
     0
 43
0.0
 10
65.9707996233737
 20
43.81209478587142
 10
66.24158412851426
 20
43.62537061057088
  0
SPLINE
  5
E7
330
1F
100
AcDbEntity
  8
レイヤー 1
 62
     7
370
     9
100
AcDbSpline
210
0.0
220
0.0
230
1.0
 70
     8
 71
     3
 72
     8
 73
     4
 74
     0
 42
0.000000001
 43
0.0000000001
 40
0.0
 40
0.0
 40
0.0
 40
0.0
 40
1.0
 40
1.0
 40
1.0
 40
1.0
 10
66.23951707122313
 20
43.59849886578594
 30
0.0
 10
66.24089510941718
 20
43.60470003765938
 30
0.0
 10
66.24158412851426
 20
43.61848041960039
 30
0.0
 10
66.24158412851426
 20
43.62537061057088
 30
0.0
  0
LWPOLYLINE
  5
E8
330
1F
100
AcDbEntity
  8
レイヤー 1
 62
     7
370
     9
100
AcDbPolyline
 90
        2
 70
     0
 43
0.0
 10
66.23951707122313
 20
43.59849886578594
 10
65.94254984039463
 20
43.43726839707625
  0
LWPOLYLINE
  5
EC
330
1F
100
AcDbEntity
  8
レイヤー 1
 62
     7
370
     9
100
AcDbPolyline
 90
        2
 70
     0
 43
0.0
 10
65.94254984039463
 20
43.4365793779792
 10
66.19817592540011
 20
43.23883089712585
  0
SPLINE
  5
F0
330
1F
100
AcDbEntity
  8
レイヤー 1
 62
     7
370
     9
100
AcDbSpline
210
0.0
220
0.0
230
1.0
 70
     8
 71
     3
 72
     8
 73
     4
 74
     0
 42
0.000000001
 43
0.0000000001
 40
0.0
 40
0.0
 40
0.0
 40
0.0
 40
1.0
 40
1.0
 40
1.0
 40
1.0
 10
66.19404181081785
 20
43.21058111414681
 30
0.0
 10
66.1954198490119
 20
43.21816032421435
 30
0.0
 10
66.19748690630314
 20
43.2312516870583
 30
0.0
 10
66.19817592540011
 20
43.23883089712585
 30
0.0
  0
LWPOLYLINE
  5
F1
330
1F
100
AcDbEntity
  8
レイヤー 1
 62
     7
370
     9
100
AcDbPolyline
 90
        2
 70
     0
 43
0.0
 10
66.19404181081785
 20
43.21058111414681
 10
65.88536125533943
 20
43.07208827563977
  0
LWPOLYLINE
  5
F5
330
1F
100
AcDbEntity
  8
レイヤー 1
 62
     7
370
     9
100
AcDbPolyline
 90
        2
 70
     0
 43
0.0
 10
65.88605027443651
 20
43.07208827563977
 10
66.1265179393069
 20
42.86538254652477
  0
SPLINE
  5
F9
330
1F
100
AcDbEntity
  8
レイヤー 1
 62
     7
370
     9
100
AcDbSpline
210
0.0
220
0.0
230
1.0
 70
     8
 71
     3
 72
     8
 73
     4
 74
     0
 42
0.000000001
 43
0.0000000001
 40
0.0
 40
0.0
 40
0.0
 40
0.0
 40
1.0
 40
1.0
 40
1.0
 40
1.0
 10
66.12100578653059
 20
42.83782178264278
 30
0.0
 10
66.12169480562756
 20
42.84471197361327
 30
0.0
 10
66.12445088201576
 20
42.85780333645722
 30
0.0
 10
66.1265179393069
 20
42.86538254652477
 30
0.0
  0
LWPOLYLINE
  5
FA
330
1F
100
AcDbEntity
  8
レイヤー 1
 62
     7
370
     9
100
AcDbPolyline
 90
        2
 70
     0
 43
0.0
 10
66.12100578653059
 20
42.83782178264278
 10
65.80198994459641
 20
42.72137755524133
  0
LWPOLYLINE
  5
FE
330
1F
100
AcDbEntity
  8
レイヤー 1
 62
     7
370
     9
100
AcDbPolyline
 90
        2
 70
     0
 43
0.0
 10
65.80198994459641
 20
42.72137755524133
 10
66.02592115113765
 20
42.50640359696175
  0
SPLINE
  5
102
330
1F
100
AcDbEntity
  8
レイヤー 1
 62
     7
370
     9
100
AcDbSpline
210
0.0
220
0.0
230
1.0
 70
     8
 71
     3
 72
     8
 73
     4
 74
     0
 42
0.000000001
 43
0.0000000001
 40
0.0
 40
0.0
 40
0.0
 40
0.0
 40
1.0
 40
1.0
 40
1.0
 40
1.0
 10
66.0183419410701
 20
42.48228792856499
 30
0.0
 10
66.02040899836123
 20
42.4891781195355
 30
0.0
 10
66.02454311294349
 20
42.50089144418534
 30
0.0
 10
66.02661017023473
 20
42.50640359696175
 30
0.0
  0
LWPOLYLINE
  5
103
330
1F
100
AcDbEntity
  8
レイヤー 1
 62
     7
370
     9
100
AcDbPolyline
 90
        2
 70
     0
 43
0.0
 10
66.0183419410701
 20
42.48228792856499
 10
65.69381394635951
 20
42.38927035046325
  0
LWPOLYLINE
  5
107
330
1F
100
AcDbEntity
  8
レイヤー 1
 62
     7
370
     9
100
AcDbPolyline
 90
        2
 70
     0
 43
0.0
 10
65.69381394635951
 20
42.38927035046325
 10
65.90120869457161
 20
42.16809522031021
  0
SPLINE
  5
10B
330
1F
100
AcDbEntity
  8
レイヤー 1
 62
     7
370
     9
100
AcDbSpline
210
0.0
220
0.0
230
1.0
 70
     8
 71
     3
 72
     8
 73
     4
 74
     0
 42
0.000000001
 43
0.0000000001
 40
0.0
 40
0.0
 40
0.0
 40
0.0
 40
1.0
 40
1.0
 40
1.0
 40
1.0
 10
65.89018438901877
 20
42.1460466092046
 30
0.0
 10
65.89294046540698
 20
42.15224778107806
 30
0.0
 10
65.89776359908632
 20
42.1625830675338
 30
0.0
 10
65.90189771366869
 20
42.16947325850431
 30
0.0
  0
LWPOLYLINE
  5
10C
330
1F
100
AcDbEntity
  8
レイヤー 1
 62
     7
370
     9
100
AcDbPolyline
 90
        2
 70
     0
 43
0.0
 10
65.89018438901877
 20
42.1460466092046
 10
65.55876620333771
 20
42.07714469949961
  0
LWPOLYLINE
  5
110
330
1F
100
AcDbEntity
  8
レイヤー 1
 62
     7
370
     9
100
AcDbPolyline
 90
        2
 70
     0
 43
0.0
 10
65.55876620333771
 20
42.07714469949961
 10
65.74893547412358
 20
41.85390251205543
  0
SPLINE
  5
114
330
1F
100
AcDbEntity
  8
レイヤー 1
 62
     7
370
     9
100
AcDbSpline
210
0.0
220
0.0
230
1.0
 70
     8
 71
     3
 72
     8
 73
     4
 74
     0
 42
0.000000001
 43
0.0000000001
 40
0.0
 40
0.0
 40
0.0
 40
0.0
 40
1.0
 40
1.0
 40
1.0
 40
1.0
 10
65.7365331303767
 20
41.83185390094982
 30
0.0
 10
65.73928920676491
 20
41.83736605372623
 30
0.0
 10
65.74617939773538
 20
41.84770134018197
 30
0.0
 10
65.74893547412358
 20
41.85390251205543
 30
0.0
  0
LWPOLYLINE
  5
115
330
1F
100
AcDbEntity
  8
レイヤー 1
 62
     7
370
     9
100
AcDbPolyline
 90
        2
 70
     0
 43
0.0
 10
65.7365331303767
 20
41.83185390094982
 10
65.4002918110163
 20
41.78775667873863
  0
LWPOLYLINE
  5
119
330
1F
100
AcDbEntity
  8
レイヤー 1
 62
     7
370
     9
100
AcDbPolyline
 90
        2
 70
     0
 43
0.0
 10
65.4002918110163
 20
41.78706765964158
 10
65.57116854708471
 20
41.56313645310034
  0
SPLINE
  5
11D
330
1F
100
AcDbEntity
  8
レイヤー 1
 62
     7
370
     9
100
AcDbSpline
210
0.0
220
0.0
230
1.0
 70
     8
 71
     3
 72
     8
 73
     4
 74
     0
 42
0.000000001
 43
0.0000000001
 40
0.0
 40
0.0
 40
0.0
 40
0.0
 40
1.0
 40
1.0
 40
1.0
 40
1.0
 10
65.55669914604658
 20
41.54384391838293
 30
0.0
 10
65.56083326062895
 20
41.54866705206229
 30
0.0
 10
65.56703443250234
 20
41.55900233851804
 30
0.0
 10
65.57116854708471
 20
41.56313645310034
 30
0.0
  0
LWPOLYLINE
  5
11E
330
1F
100
AcDbEntity
  8
レイヤー 1
 62
     7
370
     9
100
AcDbPolyline
 90
        2
 70
     0
 43
0.0
 10
65.55669914604658
 20
41.54384391838293
 10
65.21839076939506
 20
41.52179530727734
  0
LWPOLYLINE
  5
122
330
1F
100
AcDbEntity
  8
レイヤー 1
 62
     7
370
     9
100
AcDbPolyline
 90
        2
 70
     0
 43
0.0
 10
65.21839076939506
 20
41.52179530727734
 10
65.36997497074611
 20
41.29993115802725
  0
SPLINE
  5
126
330
1F
100
AcDbEntity
  8
レイヤー 1
 62
     7
370
     9
100
AcDbSpline
210
0.0
220
0.0
230
1.0
 70
     8
 71
     3
 72
     8
 73
     4
 74
     0
 42
0.000000001
 43
0.0000000001
 40
0.0
 40
0.0
 40
0.0
 40
0.0
 40
1.0
 40
1.0
 40
1.0
 40
1.0
 10
65.35550556970799
 20
41.28201666150395
 30
0.0
 10
65.35895066519328
 20
41.28615077608625
 30
0.0
 10
65.3672188943579
 20
41.2951080243479
 30
0.0
 10
65.36997497074611
 20
41.29993115802725
 30
0.0
  0
LWPOLYLINE
  5
127
330
1F
100
AcDbEntity
  8
レイヤー 1
 62
     7
370
     9
100
AcDbPolyline
 90
        2
 70
     0
 43
0.0
 10
65.35550556970799
 20
41.28201666150395
 10
65.01581915486241
 20
41.28477273789215
  0
LWPOLYLINE
  5
12B
330
1F
100
AcDbEntity
  8
レイヤー 1
 62
     7
370
     9
100
AcDbPolyline
 90
        2
 70
     0
 43
0.0
 10
65.01581915486241
 20
41.28477273789215
 10
65.148110821496
 20
41.06428662683616
  0
SPLINE
  5
12F
330
1F
100
AcDbEntity
  8
レイヤー 1
 62
     7
370
     9
100
AcDbSpline
210
0.0
220
0.0
230
1.0
 70
     8
 71
     3
 72
     8
 73
     4
 74
     0
 42
0.000000001
 43
0.0000000001
 40
0.0
 40
0.0
 40
0.0
 40
0.0
 40
1.0
 40
1.0
 40
1.0
 40
1.0
 10
65.13157436316675
 20
41.04912820670106
 30
0.0
 10
65.13570847774912
 20
41.05326232128336
 30
0.0
 10
65.14397670691363
 20
41.0608415313509
 30
0.0
 10
65.148110821496
 20
41.0649756459332
 30
0.0
  0
LWPOLYLINE
  5
130
330
1F
100
AcDbEntity
  8
レイヤー 1
 62
     7
370
     9
100
AcDbPolyline
 90
        2
 70
     0
 43
0.0
 10
65.13157436316675
 20
41.04912820670106
 10
64.79257696741826
 20
41.07599995148601
  0
LWPOLYLINE
  5
134
330
1F
100
AcDbEntity
  8
レイヤー 1
 62
     7
370
     9
100
AcDbPolyline
 90
        2
 70
     0
 43
0.0
 10
64.79257696741826
 20
41.07599995148601
 10
64.90557609933438
 20
40.86171501230346
  0
SPLINE
  5
138
330
1F
100
AcDbEntity
  8
レイヤー 1
 62
     7
370
     9
100
AcDbSpline
210
0.0
220
0.0
230
1.0
 70
     8
 71
     3
 72
     8
 73
     4
 74
     0
 42
0.000000001
 43
0.0000000001
 40
0.0
 40
0.0
 40
0.0
 40
0.0
 40
1.0
 40
1.0
 40
1.0
 40
1.0
 10
64.88835062190816
 20
40.84862364945953
 30
0.0
 10
64.89248473649042
 20
40.85069070675067
 30
0.0
 10
64.90144198475213
 20
40.85826991681822
 30
0.0
 10
64.90557609933438
 20
40.86171501230346
 30
0.0
  0
LWPOLYLINE
  5
139
330
1F
100
AcDbEntity
  8
レイヤー 1
 62
     7
370
     9
100
AcDbPolyline
 90
        2
 70
     0
 43
0.0
 10
64.88835062190816
 20
40.84862364945953
 10
64.55142028345068
 20
40.89823302444712
  0
LWPOLYLINE
  5
13D
330
1F
100
AcDbEntity
  8
レイヤー 1
 62
     7
370
     9
100
AcDbPolyline
 90
        2
 70
     0
 43
0.0
 10
64.55142028345068
 20
40.89823302444712
 10
64.64650491884362
 20
40.69083827623507
  0
SPLINE
  5
141
330
1F
100
AcDbEntity
  8
レイヤー 1
 62
     7
370
     9
100
AcDbSpline
210
0.0
220
0.0
230
1.0
 70
     8
 71
     3
 72
     8
 73
     4
 74
     0
 42
0.000000001
 43
0.0000000001
 40
0.0
 40
0.0
 40
0.0
 40
0.0
 40
1.0
 40
1.0
 40
1.0
 40
1.0
 10
64.62790140322323
 20
40.67981397068228
 30
0.0
 10
64.63272453690257
 20
40.68257004707047
 30
0.0
 10
64.6409927660672
 20
40.68808219984687
 30
0.0
 10
64.64650491884362
 20
40.69083827623507
 30
0.0
  0
LWPOLYLINE
  5
142
330
1F
100
AcDbEntity
  8
レイヤー 1
 62
     7
370
     9
100
AcDbPolyline
 90
        2
 70
     0
 43
0.0
 10
64.62790140322323
 20
40.67981397068228
 10
64.29510517934813
 20
40.75147195677548
  0
LWPOLYLINE
  5
146
330
1F
100
AcDbEntity
  8
レイヤー 1
 62
     7
370
     9
100
AcDbPolyline
 90
        2
 70
     0
 43
0.0
 10
64.29510517934813
 20
40.75147195677548
 10
64.3708972800236
 20
40.55441249501918
  0
SPLINE
  5
14A
330
1F
100
AcDbEntity
  8
レイヤー 1
 62
     7
370
     9
100
AcDbSpline
210
0.0
220
0.0
230
1.0
 70
     8
 71
     3
 72
     8
 73
     4
 74
     0
 42
0.000000001
 43
0.0000000001
 40
0.0
 40
0.0
 40
0.0
 40
0.0
 40
1.0
 40
1.0
 40
1.0
 40
1.0
 10
64.35022670711209
 20
40.54545524675753
 30
0.0
 10
64.3557388598885
 20
40.54821132314574
 30
0.0
 10
64.36538512724718
 20
40.55234543772804
 30
0.0
 10
64.3708972800236
 20
40.55441249501918
 30
0.0
  0
LWPOLYLINE
  5
14B
330
1F
100
AcDbEntity
  8
レイヤー 1
 62
     7
370
     9
100
AcDbPolyline
 90
        2
 70
     0
 43
0.0
 10
64.35022670711209
 20
40.54545524675753
 10
64.0229426360134
 20
40.63985086305338
  0
LWPOLYLINE
  5
14F
330
1F
100
AcDbEntity
  8
レイヤー 1
 62
     7
370
     9
100
AcDbPolyline
 90
        2
 70
     0
 43
0.0
 10
64.0229426360134
 20
40.63985086305338
 10
64.08219827835973
 20
40.45243766865579
  0
LWPOLYLINE
  5
153
330
1F
100
AcDbEntity
  8
レイヤー 1
 62
     7
370
     9
100
AcDbPolyline
 90
        2
 70
     0
 43
0.0
 10
64.06014966725405
 20
40.44692551587939
 10
64.08219827835973
 20
40.45243766865579
  0
LWPOLYLINE
  5
157
330
1F
100
AcDbEntity
  8
レイヤー 1
 62
     7
370
     9
100
AcDbPolyline
 90
        2
 70
     0
 43
0.0
 10
64.06014966725405
 20
40.44692551587939
 10
63.73975578712583
 20
40.56061366689264
  0
LWPOLYLINE
  5
15B
330
1F
100
AcDbEntity
  8
レイヤー 1
 62
     7
370
     9
100
AcDbPolyline
 90
        2
 70
     0
 43
0.0
 10
63.73975578712583
 20
40.56061366689264
 10
63.78109693294886
 20
40.38835889263014
  0
SPLINE
  5
15F
330
1F
100
AcDbEntity
  8
レイヤー 1
 62
     7
370
     9
100
AcDbSpline
210
0.0
220
0.0
230
1.0
 70
     8
 71
     3
 72
     8
 73
     4
 74
     0
 42
0.000000001
 43
0.0000000001
 40
0.0
 40
0.0
 40
0.0
 40
0.0
 40
1.0
 40
1.0
 40
1.0
 40
1.0
 10
63.7590483218433
 20
40.38491379714489
 30
0.0
 10
63.76524949371668
 20
40.38560281624194
 30
0.0
 10
63.77420674197839
 20
40.38766987353308
 30
0.0
 10
63.78109693294886
 20
40.38835889263014
 30
0.0
  0
LWPOLYLINE
  5
160
330
1F
100
AcDbEntity
  8
レイヤー 1
 62
     7
370
     9
100
AcDbPolyline
 90
        2
 70
     0
 43
0.0
 10
63.7590483218433
 20
40.38491379714489
 10
63.44761168997667
 20
40.51651644468143
  0
LWPOLYLINE
  5
164
330
1F
100
AcDbEntity
  8
レイヤー 1
 62
     7
370
     9
100
AcDbPolyline
 90
        2
 70
     0
 43
0.0
 10
63.44692267087959
 20
40.51720546377848
 10
63.47172735837347
 20
40.35873107145699
  0
LWPOLYLINE
  5
168
330
1F
100
AcDbEntity
  8
レイヤー 1
 62
     7
370
     9
100
AcDbPolyline
 90
        2
 70
     0
 43
0.0
 10
63.44830070907375
 20
40.35873107145699
 10
63.47172735837347
 20
40.35873107145699
  0
LWPOLYLINE
  5
16C
330
1F
100
AcDbEntity
  8
レイヤー 1
 62
     7
370
     9
100
AcDbPolyline
 90
        2
 70
     0
 43
0.0
 10
63.44830070907375
 20
40.35873107145699
 10
63.14719936366288
 20
40.50824821551683
  0
LWPOLYLINE
  5
170
330
1F
100
AcDbEntity
  8
レイヤー 1
 62
     7
370
     9
100
AcDbPolyline
 90
        2
 70
     0
 43
0.0
 10
63.14719936366288
 20
40.50824821551683
 10
63.15546759282751
 20
40.36768831971864
  0
SPLINE
  5
174
330
1F
100
AcDbEntity
  8
レイヤー 1
 62
     7
370
     9
100
AcDbSpline
210
0.0
220
0.0
230
1.0
 70
     8
 71
     3
 72
     8
 73
     4
 74
     0
 42
0.000000001
 43
0.0000000001
 40
0.0
 40
0.0
 40
0.0
 40
0.0
 40
1.0
 40
1.0
 40
1.0
 40
1.0
 10
63.13341898172183
 20
40.36837733881569
 30
0.0
 10
63.13893113449825
 20
40.36837733881569
 30
0.0
 10
63.14995544005109
 20
40.36768831971864
 30
0.0
 10
63.15546759282751
 20
40.36768831971864
 30
0.0
  0
LWPOLYLINE
  5
175
330
1F
100
AcDbEntity
  8
レイヤー 1
 62
     7
370
     9
100
AcDbPolyline
 90
        2
 70
     0
 43
0.0
 10
63.13341898172183
 20
40.36837733881569
 10
62.84265292276683
 20
40.53443094120473
  0
LWPOLYLINE
  5
179
330
1F
100
AcDbEntity
  8
レイヤー 1
 62
     7
370
     9
100
AcDbPolyline
 90
        2
 70
     0
 43
0.0
 10
62.84265292276683
 20
40.53443094120473
 10
62.83645175089333
 20
40.41247456102688
  0
SPLINE
  5
17D
330
1F
100
AcDbEntity
  8
レイヤー 1
 62
     7
370
     9
100
AcDbSpline
210
0.0
220
0.0
230
1.0
 70
     8
 71
     3
 72
     8
 73
     4
 74
     0
 42
0.000000001
 43
0.0000000001
 40
0.0
 40
0.0
 40
0.0
 40
0.0
 40
1.0
 40
1.0
 40
1.0
 40
1.0
 10
62.81302510159361
 20
40.41660867560918
 30
0.0
 10
62.81922627346711
 20
40.41523063741509
 30
0.0
 10
62.83025057901995
 20
40.41316358012394
 30
0.0
 10
62.83645175089333
 20
40.41247456102688
 30
0.0
  0
LWPOLYLINE
  5
17E
330
1F
100
AcDbEntity
  8
レイヤー 1
 62
     7
370
     9
100
AcDbPolyline
 90
        2
 70
     0
 43
0.0
 10
62.81302510159361
 20
40.41660867560918
 10
62.53535040548246
 20
40.59713167903628
  0
LWPOLYLINE
  5
182
330
1F
100
AcDbEntity
  8
レイヤー 1
 62
     7
370
     9
100
AcDbPolyline
 90
        2
 70
     0
 43
0.0
 10
62.53603942457954
 20
40.59713167903628
 10
62.51605787076511
 20
40.49308979538174
  0
SPLINE
  5
186
330
1F
100
AcDbEntity
  8
レイヤー 1
 62
     7
370
     9
100
AcDbSpline
210
0.0
220
0.0
230
1.0
 70
     8
 71
     3
 72
     8
 73
     4
 74
     0
 42
0.000000001
 43
0.0000000001
 40
0.0
 40
0.0
 40
0.0
 40
0.0
 40
1.0
 40
1.0
 40
1.0
 40
1.0
 10
62.49194220236831
 20
40.50066900544928
 30
0.0
 10
62.49745435514473
 20
40.49860194815814
 30
0.0
 10
62.50916767979464
 20
40.49515685267289
 30
0.0
 10
62.51536885166803
 20
40.49308979538174
 30
0.0
  0
LWPOLYLINE
  5
187
330
1F
100
AcDbEntity
  8
レイヤー 1
 62
     7
370
     9
100
AcDbPolyline
 90
        2
 70
     0
 43
0.0
 10
62.49194220236831
 20
40.50066900544928
 10
62.22873690729529
 20
40.69152729533212
  0
LWPOLYLINE
  5
18B
330
1F
100
AcDbEntity
  8
レイヤー 1
 62
     7
370
     9
100
AcDbPolyline
 90
        2
 70
     0
 43
0.0
 10
62.22873690729529
 20
40.69290533352623
 10
62.19635300973397
 20
40.61022304188023
  0
SPLINE
  5
18F
330
1F
100
AcDbEntity
  8
レイヤー 1
 62
     7
370
     9
100
AcDbSpline
210
0.0
220
0.0
230
1.0
 70
     8
 71
     3
 72
     8
 73
     4
 74
     0
 42
0.000000001
 43
0.0000000001
 40
0.0
 40
0.0
 40
0.0
 40
0.0
 40
1.0
 40
1.0
 40
1.0
 40
1.0
 10
62.17292636043425
 20
40.61918029014188
 30
0.0
 10
62.17843851321066
 20
40.61780225194778
 30
0.0
 10
62.18946281876339
 20
40.61297911826843
 30
0.0
 10
62.19635300973397
 20
40.61022304188023
 30
0.0
  0
LWPOLYLINE
  5
190
330
1F
100
AcDbEntity
  8
レイヤー 1
 62
     7
370
     9
100
AcDbPolyline
 90
        2
 70
     0
 43
0.0
 10
62.17292636043425
 20
40.61918029014188
 10
61.92350144730216
 20
40.82244092377162
  0
LWPOLYLINE
  5
194
330
1F
100
AcDbEntity
  8
レイヤー 1
 62
     7
370
     9
100
AcDbPolyline
 90
        2
 70
     0
 43
0.0
 10
61.92419046639924
 20
40.82244092377162
 10
61.87940422509092
 20
40.76249626232827
  0
SPLINE
  5
198
330
1F
100
AcDbEntity
  8
レイヤー 1
 62
     7
370
     9
100
AcDbSpline
210
0.0
220
0.0
230
1.0
 70
     8
 71
     3
 72
     8
 73
     4
 74
     0
 42
0.000000001
 43
0.0000000001
 40
0.0
 40
0.0
 40
0.0
 40
0.0
 40
1.0
 40
1.0
 40
1.0
 40
1.0
 10
61.85735561398536
 20
40.77420958697812
 30
0.0
 10
61.86355678585875
 20
40.77076449149287
 30
0.0
 10
61.8738920723145
 20
40.76594135781352
 30
0.0
 10
61.87940422509092
 20
40.76249626232827
 30
0.0
  0
LWPOLYLINE
  5
199
330
1F
100
AcDbEntity
  8
レイヤー 1
 62
     7
370
     9
100
AcDbPolyline
 90
        2
 70
     0
 43
0.0
 10
61.85735561398536
 20
40.77420958697812
 10
61.6251561782795
 20
40.98573844977247
  0
LWPOLYLINE
  5
19D
330
1F
100
AcDbEntity
  8
レイヤー 1
 62
     7
370
     9
100
AcDbPolyline
 90
        2
 70
     0
 43
0.0
 10
61.6251561782795
 20
40.98573844977247
 10
61.57072366961251
 20
40.94715338033767
  0
SPLINE
  5
1A1
330
1F
100
AcDbEntity
  8
レイヤー 1
 62
     7
370
     9
100
AcDbSpline
210
0.0
220
0.0
230
1.0
 70
     8
 71
     3
 72
     8
 73
     4
 74
     0
 42
0.000000001
 43
0.0000000001
 40
0.0
 40
0.0
 40
0.0
 40
0.0
 40
1.0
 40
1.0
 40
1.0
 40
1.0
 10
61.54867505850694
 20
40.96162278137571
 30
0.0
 10
61.55418721128336
 20
40.95817768589046
 30
0.0
 10
61.5652115168362
 20
40.95059847582291
 30
0.0
 10
61.57072366961251
 20
40.94715338033767
 30
0.0
  0
LWPOLYLINE
  5
1A2
330
1F
100
AcDbEntity
  8
レイヤー 1
 62
     7
370
     9
100
AcDbPolyline
 90
        2
 70
     0
 43
0.0
 10
61.54867505850694
 20
40.96162278137571
 10
61.33370110022742
 20
41.18004183514056
  0
LWPOLYLINE
  5
1A6
330
1F
100
AcDbEntity
  8
レイヤー 1
 62
     7
370
     9
100
AcDbPolyline
 90
        2
 70
     0
 43
0.0
 10
61.33370110022742
 20
41.18004183514056
 10
61.26962232420175
 20
41.16488341500545
  0
SPLINE
  5
1AA
330
1F
100
AcDbEntity
  8
レイヤー 1
 62
     7
370
     9
100
AcDbSpline
210
0.0
220
0.0
230
1.0
 70
     8
 71
     3
 72
     8
 73
     4
 74
     0
 42
0.000000001
 43
0.0000000001
 40
0.0
 40
0.0
 40
0.0
 40
0.0
 40
1.0
 40
1.0
 40
1.0
 40
1.0
 10
61.25032978948428
 20
41.18141987333465
 30
0.0
 10
61.25515292316362
 20
41.17728575875235
 30
0.0
 10
61.26479919052241
 20
41.16901752958775
 30
0.0
 10
61.26893330510467
 20
41.1655724341025
 30
0.0
  0
LWPOLYLINE
  5
1AB
330
1F
100
AcDbEntity
  8
レイヤー 1
 62
     7
370
     9
100
AcDbPolyline
 90
        2
 70
     0
 43
0.0
 10
61.25032978948428
 20
41.18141987333465
 10
61.0518922895339
 20
41.40259500348769
  0
LWPOLYLINE
  5
1AF
330
1F
100
AcDbEntity
  8
レイヤー 1
 62
     7
370
     9
100
AcDbPolyline
 90
        2
 70
     0
 43
0.0
 10
61.0518922895339
 20
41.40259500348769
 10
60.98092332253776
 20
41.41293028994345
  0
SPLINE
  5
1B3
330
1F
100
AcDbEntity
  8
レイヤー 1
 62
     7
370
     9
100
AcDbSpline
210
0.0
220
0.0
230
1.0
 70
     8
 71
     3
 72
     8
 73
     4
 74
     0
 42
0.000000001
 43
0.0000000001
 40
0.0
 40
0.0
 40
0.0
 40
0.0
 40
1.0
 40
1.0
 40
1.0
 40
1.0
 10
60.96163078782041
 20
41.43084478646674
 30
0.0
 10
60.96576490240267
 20
41.42671067188444
 30
0.0
 10
60.97678920795551
 20
41.4177534236228
 30
0.0
 10
60.98092332253776
 20
41.41293028994345
 30
0.0
  0
LWPOLYLINE
  5
1B4
330
1F
100
AcDbEntity
  8
レイヤー 1
 62
     7
370
     9
100
AcDbPolyline
 90
        2
 70
     0
 43
0.0
 10
60.96163078782041
 20
41.43084478646674
 10
60.78179680349029
 20
41.65546501210503
  0
LWPOLYLINE
  5
1B8
330
1F
100
AcDbEntity
  8
レイヤー 1
 62
     7
370
     9
100
AcDbPolyline
 90
        2
 70
     0
 43
0.0
 10
60.78179680349029
 20
41.65546501210503
 10
60.75561407780248
 20
41.66717833675489
  0
LWPOLYLINE
  5
1BC
330
1F
100
AcDbEntity
  8
レイヤー 1
 62
     7
370
     9
100
AcDbPolyline
 90
        2
 70
     0
 43
0.0
 10
59.58221455552638
 20
43.47447542831695
 10
59.52778204685939
 20
43.62812668695909
  0
LWPOLYLINE
  5
1C0
330
1F
100
AcDbEntity
  8
レイヤー 1
 62
     7
370
     9
100
AcDbPolyline
 90
        2
 70
     0
 43
0.0
 10
59.52778204685939
 20
43.62812668695909
 10
59.4554350416692
 20
43.80107048031863
  0
SPLINE
  5
1C4
330
1F
100
AcDbEntity
  8
レイヤー 1
 62
     7
370
     9
100
AcDbSpline
210
0.0
220
0.0
230
1.0
 70
     8
 71
     3
 72
     8
 73
     4
 74
     0
 42
0.000000001
 43
0.0000000001
 40
0.0
 40
0.0
 40
0.0
 40
0.0
 40
1.0
 40
1.0
 40
1.0
 40
1.0
 10
59.4464777934075
 20
43.82863124420062
 30
0.0
 10
59.44785583160166
 20
43.82174105323013
 30
0.0
 10
59.45336798437796
 20
43.80796067128912
 30
0.0
 10
59.45681307986325
 20
43.80107048031863
 30
0.0
  0
LWPOLYLINE
  5
1C5
330
1F
100
AcDbEntity
  8
レイヤー 1
 62
     7
370
     9
100
AcDbPolyline
 90
        2
 70
     0
 43
0.0
 10
59.4464777934075
 20
43.82863124420062
 10
59.39617939932288
 20
44.00915424762772
  0
LWPOLYLINE
  5
1C9
330
1F
100
AcDbEntity
  8
レイヤー 1
 62
     7
370
     9
100
AcDbPolyline
 90
        2
 70
     0
 43
0.0
 10
59.39617939932288
 20
44.00915424762772
 10
59.33003356600608
 20
44.20276861389875
  0
SPLINE
  5
1CD
330
1F
100
AcDbEntity
  8
レイヤー 1
 62
     7
370
     9
100
AcDbSpline
210
0.0
220
0.0
230
1.0
 70
     8
 71
     3
 72
     8
 73
     4
 74
     0
 42
0.000000001
 43
0.0000000001
 40
0.0
 40
0.0
 40
0.0
 40
0.0
 40
1.0
 40
1.0
 40
1.0
 40
1.0
 10
59.32245435593853
 20
44.23170741597485
 30
0.0
 10
59.32452141322966
 20
44.22481722500436
 30
0.0
 10
59.32796650871495
 20
44.20965880486926
 30
0.0
 10
59.33003356600608
 20
44.20276861389875
 30
0.0
  0
LWPOLYLINE
  5
1CE
330
1F
100
AcDbEntity
  8
レイヤー 1
 62
     7
370
     9
100
AcDbPolyline
 90
        2
 70
     0
 43
0.0
 10
59.32245435593853
 20
44.23170741597485
 10
59.29007045837722
 20
44.39707199926686
  0
LWPOLYLINE
  5
1D2
330
1F
100
AcDbEntity
  8
レイヤー 1
 62
     7
370
     9
100
AcDbPolyline
 90
        2
 70
     0
 43
0.0
 10
59.29007045837722
 20
44.39707199926686
 10
59.23081481603089
 20
44.60928988115825
  0
SPLINE
  5
1D6
330
1F
100
AcDbEntity
  8
レイヤー 1
 62
     7
370
     9
100
AcDbSpline
210
0.0
220
0.0
230
1.0
 70
     8
 71
     3
 72
     8
 73
     4
 74
     0
 42
0.000000001
 43
0.0000000001
 40
0.0
 40
0.0
 40
0.0
 40
0.0
 40
1.0
 40
1.0
 40
1.0
 40
1.0
 10
59.22599168235155
 20
44.63960672142844
 30
0.0
 10
59.22668070144852
 20
44.63133849226384
 30
0.0
 10
59.23012579693381
 20
44.61755811032285
 30
0.0
 10
59.23081481603089
 20
44.60928988115825
 30
0.0
  0
LWPOLYLINE
  5
1D7
330
1F
100
AcDbEntity
  8
レイヤー 1
 62
     7
370
     9
100
AcDbPolyline
 90
        2
 70
     0
 43
0.0
 10
59.22599168235155
 20
44.63960672142844
 10
59.21014424311937
 20
44.78912386548828
  0
LWPOLYLINE
  5
1DB
330
1F
100
AcDbEntity
  8
レイヤー 1
 62
     7
370
     9
100
AcDbPolyline
 90
        2
 70
     0
 43
0.0
 10
59.20945522402229
 20
44.78912386548828
 10
59.16191290632588
 20
45.01925624390297
  0
SPLINE
  5
1DF
330
1F
100
AcDbEntity
  8
レイヤー 1
 62
     7
370
     9
100
AcDbSpline
210
0.0
220
0.0
230
1.0
 70
     8
 71
     3
 72
     8
 73
     4
 74
     0
 42
0.000000001
 43
0.0000000001
 40
0.0
 40
0.0
 40
0.0
 40
0.0
 40
1.0
 40
1.0
 40
1.0
 40
1.0
 10
59.15708977264654
 20
45.04957308417318
 30
0.0
 10
59.15708977264654
 20
45.04268289320267
 30
0.0
 10
59.15984584903475
 20
45.02752447306757
 30
0.0
 10
59.1612238872288
 20
45.01925624390297
 30
0.0
  0
LWPOLYLINE
  5
1E0
330
1F
100
AcDbEntity
  8
レイヤー 1
 62
     7
370
     9
100
AcDbPolyline
 90
        2
 70
     0
 43
0.0
 10
59.15708977264654
 20
45.04957308417318
 10
59.15571173445238
 20
45.18117573170971
  0
LWPOLYLINE
  5
1E4
330
1F
100
AcDbEntity
  8
レイヤー 1
 62
     7
370
     9
100
AcDbPolyline
 90
        2
 70
     0
 43
0.0
 10
59.15571173445238
 20
45.18186475080677
 10
59.11781568411465
 20
45.4292226066477
  0
SPLINE
  5
1E8
330
1F
100
AcDbEntity
  8
レイヤー 1
 62
     7
370
     9
100
AcDbSpline
210
0.0
220
0.0
230
1.0
 70
     8
 71
     3
 72
     8
 73
     4
 74
     0
 42
0.000000001
 43
0.0000000001
 40
0.0
 40
0.0
 40
0.0
 40
0.0
 40
1.0
 40
1.0
 40
1.0
 40
1.0
 10
59.11574862682352
 20
45.4581614087238
 30
0.0
 10
59.11574862682352
 20
45.4512712177533
 30
0.0
 10
59.11712666501757
 20
45.43680181671525
 30
0.0
 10
59.11781568411465
 20
45.4292226066477
 30
0.0
  0
LWPOLYLINE
  5
1E9
330
1F
100
AcDbEntity
  8
レイヤー 1
 62
     7
370
     9
100
AcDbPolyline
 90
        2
 70
     0
 43
0.0
 10
59.11574862682352
 20
45.4581614087238
 10
59.13021802786153
 20
45.57116054063999
  0
LWPOLYLINE
  5
1ED
330
1F
100
AcDbEntity
  8
レイヤー 1
 62
     7
370
     9
100
AcDbPolyline
 90
        2
 70
     0
 43
0.0
 10
59.12952900876456
 20
45.57116054063999
 10
59.10334628307663
 20
45.83505485481014
  0
SPLINE
  5
1F1
330
1F
100
AcDbEntity
  8
レイヤー 1
 62
     7
370
     9
100
AcDbSpline
210
0.0
220
0.0
230
1.0
 70
     8
 71
     3
 72
     8
 73
     4
 74
     0
 42
0.000000001
 43
0.0000000001
 40
0.0
 40
0.0
 40
0.0
 40
0.0
 40
1.0
 40
1.0
 40
1.0
 40
1.0
 10
59.10403530217371
 20
45.86399365688624
 30
0.0
 10
59.10334628307663
 20
45.85641444681869
 30
0.0
 10
59.10334628307663
 20
45.84194504578063
 30
0.0
 10
59.10334628307663
 20
45.83505485481014
 30
0.0
  0
LWPOLYLINE
  5
1F2
330
1F
100
AcDbEntity
  8
レイヤー 1
 62
     7
370
     9
100
AcDbPolyline
 90
        2
 70
     0
 43
0.0
 10
59.10403530217371
 20
45.86399365688624
 10
59.13090704695861
 20
45.95563319679388
  0
LWPOLYLINE
  5
1F6
330
1F
100
AcDbEntity
  8
レイヤー 1
 62
     7
370
     9
100
AcDbPolyline
 90
        2
 70
     0
 43
0.0
 10
59.13090704695861
 20
45.95563319679388
 10
59.11781568411465
 20
46.23261887380797
  0
SPLINE
  5
1FA
330
1F
100
AcDbEntity
  8
レイヤー 1
 62
     7
370
     9
100
AcDbSpline
210
0.0
220
0.0
230
1.0
 70
     8
 71
     3
 72
     8
 73
     4
 74
     0
 42
0.000000001
 43
0.0000000001
 40
0.0
 40
0.0
 40
0.0
 40
0.0
 40
1.0
 40
1.0
 40
1.0
 40
1.0
 10
59.12057176050286
 20
46.26017963768996
 30
0.0
 10
59.11988274140577
 20
46.25397846581652
 30
0.0
 10
59.11919372230881
 20
46.24019808387551
 30
0.0
 10
59.11850470321173
 20
46.23261887380797
 30
0.0
  0
LWPOLYLINE
  5
1FB
330
1F
100
AcDbEntity
  8
レイヤー 1
 62
     7
370
     9
100
AcDbPolyline
 90
        2
 70
     0
 43
0.0
 10
59.12057176050286
 20
46.26017963768996
 10
59.16053486813172
 20
46.33321566197726
  0
LWPOLYLINE
  5
1FF
330
1F
100
AcDbEntity
  8
レイヤー 1
 62
     7
370
     9
100
AcDbPolyline
 90
        2
 70
     0
 43
0.0
 10
59.15984584903475
 20
46.33321566197726
 10
59.16191290632588
 20
46.6205366254471
  0
SPLINE
  5
203
330
1F
100
AcDbEntity
  8
レイヤー 1
 62
     7
370
     9
100
AcDbSpline
210
0.0
220
0.0
230
1.0
 70
     8
 71
     3
 72
     8
 73
     4
 74
     0
 42
0.000000001
 43
0.0000000001
 40
0.0
 40
0.0
 40
0.0
 40
0.0
 40
1.0
 40
1.0
 40
1.0
 40
1.0
 10
59.16673604000522
 20
46.64740837023204
 30
0.0
 10
59.16535800181117
 20
46.6398291601645
 30
0.0
 10
59.16260192542296
 20
46.62673779732054
 30
0.0
 10
59.16191290632588
 20
46.6205366254471
 30
0.0
  0
LWPOLYLINE
  5
204
330
1F
100
AcDbEntity
  8
レイヤー 1
 62
     7
370
     9
100
AcDbPolyline
 90
        2
 70
     0
 43
0.0
 10
59.16673604000522
 20
46.64740837023204
 10
59.21565639589579
 20
46.69701774521964
  0
LWPOLYLINE
  5
208
330
1F
100
AcDbEntity
  8
レイヤー 1
 62
     7
370
     9
100
AcDbPolyline
 90
        2
 70
     0
 43
0.0
 10
59.21634541499287
 20
46.69701774521964
 10
59.2335708924191
 20
46.99467399514523
  0
SPLINE
  5
20C
330
1F
100
AcDbEntity
  8
レイヤー 1
 62
     7
370
     9
100
AcDbSpline
210
0.0
220
0.0
230
1.0
 70
     8
 71
     3
 72
     8
 73
     4
 74
     0
 42
0.000000001
 43
0.0000000001
 40
0.0
 40
0.0
 40
0.0
 40
0.0
 40
1.0
 40
1.0
 40
1.0
 40
1.0
 10
59.23977206429248
 20
47.02085672083312
 30
0.0
 10
59.23839402609843
 20
47.01396652986263
 30
0.0
 10
59.23494893061314
 20
47.00018614792162
 30
0.0
 10
59.2335708924191
 20
46.99467399514523
 30
0.0
  0
LWPOLYLINE
  5
20D
330
1F
100
AcDbEntity
  8
レイヤー 1
 62
     7
370
     9
100
AcDbPolyline
 90
        2
 70
     0
 43
0.0
 10
59.23977206429248
 20
47.02085672083312
 10
59.29971672573589
 20
47.04635042742397
  0
LWPOLYLINE
  5
211
330
1F
100
AcDbEntity
  8
レイヤー 1
 62
     7
370
     9
100
AcDbPolyline
 90
        2
 70
     0
 43
0.0
 10
59.29971672573589
 20
47.04635042742397
 10
59.33347866149126
 20
47.35158588741712
  0
SPLINE
  5
215
330
1F
100
AcDbEntity
  8
レイヤー 1
 62
     7
370
     9
100
AcDbSpline
210
0.0
220
0.0
230
1.0
 70
     8
 71
     3
 72
     8
 73
     4
 74
     0
 42
0.000000001
 43
0.0000000001
 40
0.0
 40
0.0
 40
0.0
 40
0.0
 40
1.0
 40
1.0
 40
1.0
 40
1.0
 10
59.34174689065588
 20
47.37639057491091
 30
0.0
 10
59.33967983336476
 20
47.36950038394041
 30
0.0
 10
59.3355457187825
 20
47.35847607838761
 30
0.0
 10
59.33347866149126
 20
47.35158588741712
 30
0.0
  0
LWPOLYLINE
  5
216
330
1F
100
AcDbEntity
  8
レイヤー 1
 62
     7
370
     9
100
AcDbPolyline
 90
        2
 70
     0
 43
0.0
 10
59.34174689065588
 20
47.37639057491091
 10
59.40858174306976
 20
47.37845763220206
  0
LWPOLYLINE
  5
21A
330
1F
100
AcDbEntity
  8
レイヤー 1
 62
     7
370
     9
100
AcDbPolyline
 90
        2
 70
     0
 43
0.0
 10
59.40789272397268
 20
47.37845763220206
 10
59.46025817534854
 20
47.6892052449716
  0
SPLINE
  5
21E
330
1F
100
AcDbEntity
  8
レイヤー 1
 62
     7
370
     9
100
AcDbSpline
210
0.0
220
0.0
230
1.0
 70
     8
 71
     3
 72
     8
 73
     4
 74
     0
 42
0.000000001
 43
0.0000000001
 40
0.0
 40
0.0
 40
0.0
 40
0.0
 40
1.0
 40
1.0
 40
1.0
 40
1.0
 10
59.4705934618043
 20
47.7126318942713
 30
0.0
 10
59.46783738541609
 20
47.70643072239784
 30
0.0
 10
59.46232523263967
 20
47.69540641684505
 30
0.0
 10
59.45956915625146
 20
47.6892052449716
 30
0.0
  0
LWPOLYLINE
  5
21F
330
1F
100
AcDbEntity
  8
レイヤー 1
 62
     7
370
     9
100
AcDbPolyline
 90
        2
 70
     0
 43
0.0
 10
59.4705934618043
 20
47.7126318942713
 10
59.54362948609156
 20
47.69127230226275
  0
LWPOLYLINE
  5
223
330
1F
100
AcDbEntity
  8
レイヤー 1
 62
     7
370
     9
100
AcDbPolyline
 90
        2
 70
     0
 43
0.0
 10
59.54294046699448
 20
47.69127230226275
 10
59.61253139579657
 20
48.00477599142049
  0
SPLINE
  5
227
330
1F
100
AcDbEntity
  8
レイヤー 1
 62
     7
370
     9
100
AcDbSpline
210
0.0
220
0.0
230
1.0
 70
     8
 71
     3
 72
     8
 73
     4
 74
     0
 42
0.000000001
 43
0.0000000001
 40
0.0
 40
0.0
 40
0.0
 40
0.0
 40
1.0
 40
1.0
 40
1.0
 40
1.0
 10
59.62424472044637
 20
48.02682460252608
 30
0.0
 10
59.62148864405816
 20
48.02131244974969
 30
0.0
 10
59.61390943399061
 20
48.00959912509983
 30
0.0
 10
59.6111533576024
 20
48.00477599142049
 30
0.0
  0
LWPOLYLINE
  5
228
330
1F
100
AcDbEntity
  8
レイヤー 1
 62
     7
370
     9
100
AcDbPolyline
 90
        2
 70
     0
 43
0.0
 10
59.62424472044637
 20
48.02682460252608
 10
59.70072584021892
 20
47.98134934212078
  0
LWPOLYLINE
  5
22C
330
1F
100
AcDbEntity
  8
レイヤー 1
 62
     7
370
     9
100
AcDbPolyline
 90
        2
 70
     0
 43
0.0
 10
59.701414859316
 20
47.98134934212078
 10
59.78892028464139
 20
48.29554205037557
  0
SPLINE
  5
230
330
1F
100
AcDbEntity
  8
レイヤー 1
 62
     7
370
     9
100
AcDbSpline
210
0.0
220
0.0
230
1.0
 70
     8
 71
     3
 72
     8
 73
     4
 74
     0
 42
0.000000001
 43
0.0000000001
 40
0.0
 40
0.0
 40
0.0
 40
0.0
 40
1.0
 40
1.0
 40
1.0
 40
1.0
 10
59.80338968567941
 20
48.31552360419002
 30
0.0
 10
59.79994459019412
 20
48.31001145141362
 30
0.0
 10
59.79305439922365
 20
48.30036518405491
 30
0.0
 10
59.78892028464139
 20
48.29554205037557
 30
0.0
  0
LWPOLYLINE
  5
231
330
1F
100
AcDbEntity
  8
レイヤー 1
 62
     7
370
     9
100
AcDbPolyline
 90
        2
 70
     0
 43
0.0
 10
59.80338968567941
 20
48.31552360419002
 10
59.88262688184017
 20
48.24524365629092
  0
LWPOLYLINE
  5
235
330
1F
100
AcDbEntity
  8
レイヤー 1
 62
     7
370
     9
100
AcDbPolyline
 90
        2
 70
     0
 43
0.0
 10
59.88331590093713
 20
48.24524365629092
 10
59.98873582278583
 20
48.56012538364276
  0
SPLINE
  5
239
330
1F
100
AcDbEntity
  8
レイヤー 1
 62
     7
370
     9
100
AcDbSpline
210
0.0
220
0.0
230
1.0
 70
     8
 71
     3
 72
     8
 73
     4
 74
     0
 42
0.000000001
 43
0.0000000001
 40
0.0
 40
0.0
 40
0.0
 40
0.0
 40
1.0
 40
1.0
 40
1.0
 40
1.0
 10
60.00527228111508
 20
48.57666184197195
 30
0.0
 10
60.00113816653271
 20
48.5718387082926
 30
0.0
 10
59.99286993736808
 20
48.56150342183686
 30
0.0
 10
59.99011386097987
 20
48.56012538364276
 30
0.0
  0
LWPOLYLINE
  5
23A
330
1F
100
AcDbEntity
  8
レイヤー 1
 62
     7
370
     9
100
AcDbPolyline
 90
        2
 70
     0
 43
0.0
 10
60.00527228111508
 20
48.57666184197195
 10
60.08657653456697
 20
48.48433328296726
  0
LWPOLYLINE
  5
23E
330
1F
100
AcDbEntity
  8
レイヤー 1
 62
     7
370
     9
100
AcDbPolyline
 90
        2
 70
     0
 43
0.0
 10
60.08657653456697
 20
48.48433328296726
 10
60.21197801022998
 20
48.7937028575427
  0
SPLINE
  5
242
330
1F
100
AcDbEntity
  8
レイヤー 1
 62
     7
370
     9
100
AcDbSpline
210
0.0
220
0.0
230
1.0
 70
     8
 71
     3
 72
     8
 73
     4
 74
     0
 42
0.000000001
 43
0.0000000001
 40
0.0
 40
0.0
 40
0.0
 40
0.0
 40
1.0
 40
1.0
 40
1.0
 40
1.0
 10
60.22851446855924
 20
48.80955029677484
 30
0.0
 10
60.22438035397687
 20
48.8061052012896
 30
0.0
 10
60.21611212481235
 20
48.797836972125
 30
0.0
 10
60.21197801022998
 20
48.7937028575427
 30
0.0
  0
LWPOLYLINE
  5
243
330
1F
100
AcDbEntity
  8
レイヤー 1
 62
     7
370
     9
100
AcDbPolyline
 90
        2
 70
     0
 43
0.0
 10
60.22851446855924
 20
48.80955029677484
 10
60.30981872201113
 20
48.6917280311793
  0
LWPOLYLINE
  5
247
330
1F
100
AcDbEntity
  8
レイヤー 1
 62
     7
370
     9
100
AcDbPolyline
 90
        2
 70
     0
 43
0.0
 10
60.30981872201113
 20
48.6917280311793
 10
60.45382371329453
 20
48.99696349117244
  0
SPLINE
  5
24B
330
1F
100
AcDbEntity
  8
レイヤー 1
 62
     7
370
     9
100
AcDbSpline
210
0.0
220
0.0
230
1.0
 70
     8
 71
     3
 72
     8
 73
     4
 74
     0
 42
0.000000001
 43
0.0000000001
 40
0.0
 40
0.0
 40
0.0
 40
0.0
 40
1.0
 40
1.0
 40
1.0
 40
1.0
 10
60.47173820981783
 20
49.01074387311344
 30
0.0
 10
60.46760409523557
 20
49.00729877762818
 30
0.0
 10
60.45726880877982
 20
49.00040858665768
 30
0.0
 10
60.45451273239161
 20
48.99627447207538
 30
0.0
  0
LWPOLYLINE
  5
24C
330
1F
100
AcDbEntity
  8
レイヤー 1
 62
     7
370
     9
100
AcDbPolyline
 90
        2
 70
     0
 43
0.0
 10
60.47173820981783
 20
49.01074387311344
 10
60.54959736778454
 20
48.87087299641229
  0
LWPOLYLINE
  5
250
330
1F
100
AcDbEntity
  8
レイヤー 1
 62
     7
370
     9
100
AcDbPolyline
 90
        2
 70
     0
 43
0.0
 10
60.55028638688151
 20
48.87087299641229
 10
60.71358391288237
 20
49.16715120814378
  0
SPLINE
  5
254
330
1F
100
AcDbEntity
  8
レイヤー 1
 62
     7
370
     9
100
AcDbSpline
210
0.0
220
0.0
230
1.0
 70
     8
 71
     3
 72
     8
 73
     4
 74
     0
 42
0.000000001
 43
0.0000000001
 40
0.0
 40
0.0
 40
0.0
 40
0.0
 40
1.0
 40
1.0
 40
1.0
 40
1.0
 10
60.73287644759984
 20
49.17886453279363
 30
0.0
 10
60.7280533139205
 20
49.17610845640543
 30
0.0
 10
60.71771802746474
 20
49.17059630362903
 30
0.0
 10
60.71358391288237
 20
49.16715120814378
 30
0.0
  0
LWPOLYLINE
  5
255
330
1F
100
AcDbEntity
  8
レイヤー 1
 62
     7
370
     9
100
AcDbPolyline
 90
        2
 70
     0
 43
0.0
 10
60.73287644759984
 20
49.17886453279363
 10
60.80729051008115
 20
49.01763406408394
  0
LWPOLYLINE
  5
259
330
1F
100
AcDbEntity
  8
レイヤー 1
 62
     7
370
     9
100
AcDbPolyline
 90
        2
 70
     0
 43
0.0
 10
60.80729051008115
 20
49.01694504498688
 10
60.98919155170239
 20
49.30495502755377
  0
SPLINE
  5
25D
330
1F
100
AcDbEntity
  8
レイヤー 1
 62
     7
370
     9
100
AcDbSpline
210
0.0
220
0.0
230
1.0
 70
     8
 71
     3
 72
     8
 73
     4
 74
     0
 42
0.000000001
 43
0.0000000001
 40
0.0
 40
0.0
 40
0.0
 40
0.0
 40
1.0
 40
1.0
 40
1.0
 40
1.0
 10
61.0098621246139
 20
49.31253423762132
 30
0.0
 10
61.00503899093457
 20
49.31046718033016
 30
0.0
 10
60.99470370447881
 20
49.30633306574786
 30
0.0
 10
60.98919155170239
 20
49.30495502755377
 30
0.0
  0
LWPOLYLINE
  5
25E
330
1F
100
AcDbEntity
  8
レイヤー 1
 62
     7
370
     9
100
AcDbPolyline
 90
        2
 70
     0
 43
0.0
 10
61.0098621246139
 20
49.31253423762132
 10
61.07876403431891
 20
49.12925515780603
  0
LWPOLYLINE
  5
262
330
1F
100
AcDbEntity
  8
レイヤー 1
 62
     7
370
     9
100
AcDbPolyline
 90
        2
 70
     0
 43
0.0
 10
61.07876403431891
 20
49.12925515780603
 10
61.27926859156042
 20
49.40555181572307
  0
SPLINE
  5
266
330
1F
100
AcDbEntity
  8
レイヤー 1
 62
     7
370
     9
100
AcDbSpline
210
0.0
220
0.0
230
1.0
 70
     8
 71
     3
 72
     8
 73
     4
 74
     0
 42
0.000000001
 43
0.0000000001
 40
0.0
 40
0.0
 40
0.0
 40
0.0
 40
1.0
 40
1.0
 40
1.0
 40
1.0
 10
61.29993916447194
 20
49.41175298759651
 30
0.0
 10
61.29442701169552
 20
49.41037494940241
 30
0.0
 10
61.28409172523976
 20
49.40692985391716
 30
0.0
 10
61.27926859156042
 20
49.40555181572307
 30
0.0
  0
LWPOLYLINE
  5
267
330
1F
100
AcDbEntity
  8
レイヤー 1
 62
     7
370
     9
100
AcDbPolyline
 90
        2
 70
     0
 43
0.0
 10
61.29993916447194
 20
49.41175298759651
 10
61.36195088320636
 20
49.20780333486972
  0
LWPOLYLINE
  5
26B
330
1F
100
AcDbEntity
  8
レイヤー 1
 62
     7
370
     9
100
AcDbPolyline
 90
        2
 70
     0
 43
0.0
 10
61.36195088320636
 20
49.20780333486972
 10
61.57899189877713
 20
49.47100862994282
  0
SPLINE
  5
26F
330
1F
100
AcDbEntity
  8
レイヤー 1
 62
     7
370
     9
100
AcDbSpline
210
0.0
220
0.0
230
1.0
 70
     8
 71
     3
 72
     8
 73
     4
 74
     0
 42
0.000000001
 43
0.0000000001
 40
0.0
 40
0.0
 40
0.0
 40
0.0
 40
1.0
 40
1.0
 40
1.0
 40
1.0
 10
61.60104050988281
 20
49.47445372542806
 30
0.0
 10
61.59552835710639
 20
49.47307568723396
 30
0.0
 10
61.58450405155355
 20
49.47169764903987
 30
0.0
 10
61.57899189877713
 20
49.47100862994282
 30
0.0
  0
LWPOLYLINE
  5
270
330
1F
100
AcDbEntity
  8
レイヤー 1
 62
     7
370
     9
100
AcDbPolyline
 90
        2
 70
     0
 43
0.0
 10
61.60104050988281
 20
49.47445372542806
 10
61.65409498035564
 20
49.25121153798388
  0
LWPOLYLINE
  5
274
330
1F
100
AcDbEntity
  8
レイヤー 1
 62
     7
370
     9
100
AcDbPolyline
 90
        2
 70
     0
 43
0.0
 10
61.65409498035564
 20
49.25121153798388
 10
61.88836147335263
 20
49.49856939382481
  0
SPLINE
  5
278
330
1F
100
AcDbEntity
  8
レイヤー 1
 62
     7
370
     9
100
AcDbSpline
210
0.0
220
0.0
230
1.0
 70
     8
 71
     3
 72
     8
 73
     4
 74
     0
 42
0.000000001
 43
0.0000000001
 40
0.0
 40
0.0
 40
0.0
 40
0.0
 40
1.0
 40
1.0
 40
1.0
 40
1.0
 10
61.91109910355527
 20
49.49994743201891
 30
0.0
 10
61.90627596987594
 20
49.49925841292186
 30
0.0
 10
61.89456264522602
 20
49.49925841292186
 30
0.0
 10
61.8890504924496
 20
49.49856939382481
 30
0.0
  0
LWPOLYLINE
  5
279
330
1F
100
AcDbEntity
  8
レイヤー 1
 62
     7
370
     9
100
AcDbPolyline
 90
        2
 70
     0
 43
0.0
 10
61.91109910355527
 20
49.49994743201891
 10
61.95381828757235
 20
49.26016878624553
  0
LWPOLYLINE
  5
27D
330
1F
100
AcDbEntity
  8
レイヤー 1
 62
     7
370
     9
100
AcDbPolyline
 90
        2
 70
     0
 43
0.0
 10
61.95381828757235
 20
49.26016878624553
 10
62.20462123889848
 20
49.49167920285431
  0
SPLINE
  5
281
330
1F
100
AcDbEntity
  8
レイヤー 1
 62
     7
370
     9
100
AcDbSpline
210
0.0
220
0.0
230
1.0
 70
     8
 71
     3
 72
     8
 73
     4
 74
     0
 42
0.000000001
 43
0.0000000001
 40
0.0
 40
0.0
 40
0.0
 40
0.0
 40
1.0
 40
1.0
 40
1.0
 40
1.0
 10
62.22735886910112
 20
49.48961214556316
 30
0.0
 10
62.22115769722774
 20
49.48961214556316
 30
0.0
 10
62.2101333916749
 20
49.49099018375726
 30
0.0
 10
62.20462123889848
 20
49.49167920285431
 30
0.0
  0
LWPOLYLINE
  5
282
330
1F
100
AcDbEntity
  8
レイヤー 1
 62
     7
370
     9
100
AcDbPolyline
 90
        2
 70
     0
 43
0.0
 10
62.22735886910112
 20
49.48961214556316
 10
62.25905374756547
 20
49.23329704146057
  0
LWPOLYLINE
  5
286
330
1F
100
AcDbEntity
  8
レイヤー 1
 62
     7
370
     9
100
AcDbPolyline
 90
        2
 70
     0
 43
0.0
 10
62.25905374756547
 20
49.23329704146057
 10
62.5250151190267
 20
49.44689296154607
  0
SPLINE
  5
28A
330
1F
100
AcDbEntity
  8
レイヤー 1
 62
     7
370
     9
100
AcDbSpline
210
0.0
220
0.0
230
1.0
 70
     8
 71
     3
 72
     8
 73
     4
 74
     0
 42
0.000000001
 43
0.0000000001
 40
0.0
 40
0.0
 40
0.0
 40
0.0
 40
1.0
 40
1.0
 40
1.0
 40
1.0
 10
62.54706373013238
 20
49.44206982786672
 30
0.0
 10
62.54155157735596
 20
49.44275884696377
 30
0.0
 10
62.52983825270616
 20
49.44551492335196
 30
0.0
 10
62.5250151190267
 20
49.44689296154607
 30
0.0
  0
LWPOLYLINE
  5
28B
330
1F
100
AcDbEntity
  8
レイヤー 1
 62
     7
370
     9
100
AcDbPolyline
 90
        2
 70
     0
 43
0.0
 10
62.54706373013238
 20
49.44206982786672
 10
62.56566724575276
 20
49.17197434182313
  0
LWPOLYLINE
  5
28F
330
1F
100
AcDbEntity
  8
レイヤー 1
 62
     7
370
     9
100
AcDbPolyline
 90
        2
 70
     0
 43
0.0
 10
62.56635626484973
 20
49.17197434182313
 10
62.84540899915504
 20
49.36558870809417
  0
SPLINE
  5
293
330
1F
100
AcDbEntity
  8
レイヤー 1
 62
     7
370
     9
100
AcDbSpline
210
0.0
220
0.0
230
1.0
 70
     8
 71
     3
 72
     8
 73
     4
 74
     0
 42
0.000000001
 43
0.0000000001
 40
0.0
 40
0.0
 40
0.0
 40
0.0
 40
1.0
 40
1.0
 40
1.0
 40
1.0
 10
62.8674576102606
 20
49.35800949802662
 30
0.0
 10
62.8612564383871
 20
49.36007655531776
 30
0.0
 10
62.85092115193135
 20
49.36352165080302
 30
0.0
 10
62.84609801825201
 20
49.36558870809417
 30
0.0
  0
LWPOLYLINE
  5
294
330
1F
100
AcDbEntity
  8
レイヤー 1
 62
     7
370
     9
100
AcDbPolyline
 90
        2
 70
     0
 43
0.0
 10
62.8674576102606
 20
49.35800949802662
 10
62.87296976303702
 20
49.07482264913908
  0
LWPOLYLINE
  5
298
330
1F
100
AcDbEntity
  8
レイヤー 1
 62
     7
370
     9
100
AcDbPolyline
 90
        2
 70
     0
 43
0.0
 10
62.87296976303702
 20
49.07482264913908
 10
63.1644248410891
 20
49.24776644249862
  0
SPLINE
  5
29C
330
1F
100
AcDbEntity
  8
レイヤー 1
 62
     7
370
     9
100
AcDbSpline
210
0.0
220
0.0
230
1.0
 70
     8
 71
     3
 72
     8
 73
     4
 74
     0
 42
0.000000001
 43
0.0000000001
 40
0.0
 40
0.0
 40
0.0
 40
0.0
 40
1.0
 40
1.0
 40
1.0
 40
1.0
 10
63.18785149038882
 20
49.23880919423698
 30
0.0
 10
63.1823393376124
 20
49.24018723243107
 30
0.0
 10
63.1706260129626
 20
49.24501036611042
 30
0.0
 10
63.1644248410891
 20
49.24776644249862
 30
0.0
  0
LWPOLYLINE
  5
29D
330
1F
100
AcDbEntity
  8
レイヤー 1
 62
     7
370
     9
100
AcDbPolyline
 90
        2
 70
     0
 43
0.0
 10
63.18785149038882
 20
49.23880919423698
 10
63.17751620393307
 20
48.94528705889368
  0
LWPOLYLINE
  5
2A1
330
1F
100
AcDbEntity
  8
レイヤー 1
 62
     7
370
     9
100
AcDbPolyline
 90
        2
 70
     0
 43
0.0
 10
63.17751620393307
 20
48.94528705889368
 10
63.48068460663507
 20
49.09687126024468
  0
SPLINE
  5
2A5
330
1F
100
AcDbEntity
  8
レイヤー 1
 62
     7
370
     9
100
AcDbSpline
210
0.0
220
0.0
230
1.0
 70
     8
 71
     3
 72
     8
 73
     4
 74
     0
 42
0.000000001
 43
0.0000000001
 40
0.0
 40
0.0
 40
0.0
 40
0.0
 40
1.0
 40
1.0
 40
1.0
 40
1.0
 10
63.50273321774063
 20
49.08377989740073
 30
0.0
 10
63.49653204586724
 20
49.08791401198303
 30
0.0
 10
63.48619675941148
 20
49.09342616475944
 30
0.0
 10
63.48068460663507
 20
49.09687126024468
 30
0.0
  0
LWPOLYLINE
  5
2A6
330
1F
100
AcDbEntity
  8
レイヤー 1
 62
     7
370
     9
100
AcDbPolyline
 90
        2
 70
     0
 43
0.0
 10
63.50273321774063
 20
49.08377989740073
 10
63.47723951114978
 20
48.78267855198989
  0
LWPOLYLINE
  5
2AA
330
1F
100
AcDbEntity
  8
レイヤー 1
 62
     7
370
     9
100
AcDbPolyline
 90
        2
 70
     0
 43
0.0
 10
63.47723951114978
 20
48.78267855198989
 10
63.78936516211348
 20
48.91083610404119
  0
SPLINE
  5
2AE
330
1F
100
AcDbEntity
  8
レイヤー 1
 62
     7
370
     9
100
AcDbSpline
210
0.0
220
0.0
230
1.0
 70
     8
 71
     3
 72
     8
 73
     4
 74
     0
 42
0.000000001
 43
0.0000000001
 40
0.0
 40
0.0
 40
0.0
 40
0.0
 40
1.0
 40
1.0
 40
1.0
 40
1.0
 10
63.81210279231613
 20
48.89705572210019
 30
0.0
 10
63.80659063953971
 20
48.90050081758544
 30
0.0
 10
63.7948773148899
 20
48.90739100855593
 30
0.0
 10
63.78936516211348
 20
48.91083610404119
 30
0.0
  0
LWPOLYLINE
  5
2AF
330
1F
100
AcDbEntity
  8
レイヤー 1
 62
     7
370
     9
100
AcDbPolyline
 90
        2
 70
     0
 43
0.0
 10
63.81210279231613
 20
48.89705572210019
 10
63.76869458920197
 20
48.58768614752475
  0
LWPOLYLINE
  5
2B3
330
1F
100
AcDbEntity
  8
レイヤー 1
 62
     7
370
     9
100
AcDbPolyline
 90
        2
 70
     0
 43
0.0
 10
63.76869458920197
 20
48.58975320481591
 10
64.08977748842727
 20
48.6931060693734
  0
SPLINE
  5
2B7
330
1F
100
AcDbEntity
  8
レイヤー 1
 62
     7
370
     9
100
AcDbSpline
210
0.0
220
0.0
230
1.0
 70
     8
 71
     3
 72
     8
 73
     4
 74
     0
 42
0.000000001
 43
0.0000000001
 40
0.0
 40
0.0
 40
0.0
 40
0.0
 40
1.0
 40
1.0
 40
1.0
 40
1.0
 10
64.11113708043575
 20
48.67794764923831
 30
0.0
 10
64.10562492765933
 20
48.68208176382061
 30
0.0
 10
64.09528964120369
 20
48.6889719547911
 30
0.0
 10
64.08977748842727
 20
48.6931060693734
 30
0.0
  0
LWPOLYLINE
  5
2B8
330
1F
100
AcDbEntity
  8
レイヤー 1
 62
     7
370
     9
100
AcDbPolyline
 90
        2
 70
     0
 43
0.0
 10
64.11113708043575
 20
48.67794764923831
 10
64.05050339989538
 20
48.36444396008056
  0
LWPOLYLINE
  5
2BC
330
1F
100
AcDbEntity
  8
レイヤー 1
 62
     7
370
     9
100
AcDbPolyline
 90
        2
 70
     0
 43
0.0
 10
64.05050339989538
 20
48.36444396008056
 10
64.37916550918823
 20
48.44574821353245
  0
SPLINE
  5
2C0
330
1F
100
AcDbEntity
  8
レイヤー 1
 62
     7
370
     9
100
AcDbSpline
210
0.0
220
0.0
230
1.0
 70
     8
 71
     3
 72
     8
 73
     4
 74
     0
 42
0.000000001
 43
0.0000000001
 40
0.0
 40
0.0
 40
0.0
 40
0.0
 40
1.0
 40
1.0
 40
1.0
 40
1.0
 10
64.39845804390558
 20
48.42783371700916
 30
0.0
 10
64.39294589112927
 20
48.43265685068852
 30
0.0
 10
64.38329962377048
 20
48.44299213714426
 30
0.0
 10
64.37916550918823
 20
48.44574821353245
 30
0.0
  0
LWPOLYLINE
  5
2C1
330
1F
100
AcDbEntity
  8
レイヤー 1
 62
     7
370
     9
100
AcDbPolyline
 90
        2
 70
     0
 43
0.0
 10
64.39845804390558
 20
48.42783371700916
 10
64.3199098668419
 20
48.11295198965733
  0
LWPOLYLINE
  5
2C5
330
1F
100
AcDbEntity
  8
レイヤー 1
 62
     7
370
     9
100
AcDbPolyline
 90
        2
 70
     0
 43
0.0
 10
64.3199098668419
 20
48.11295198965733
 10
64.65477314800825
 20
48.17082959380953
  0
SPLINE
  5
2C9
330
1F
100
AcDbEntity
  8
レイヤー 1
 62
     7
370
     9
100
AcDbSpline
210
0.0
220
0.0
230
1.0
 70
     8
 71
     3
 72
     8
 73
     4
 74
     0
 42
0.000000001
 43
0.0000000001
 40
0.0
 40
0.0
 40
0.0
 40
0.0
 40
1.0
 40
1.0
 40
1.0
 40
1.0
 10
64.6740656827256
 20
48.14947000180098
 30
0.0
 10
64.66924254904626
 20
48.15498215457737
 30
0.0
 10
64.6589072625905
 20
48.16462842193607
 30
0.0
 10
64.65477314800825
 20
48.17082959380953
 30
0.0
  0
LWPOLYLINE
  5
2CA
330
1F
100
AcDbEntity
  8
レイヤー 1
 62
     7
370
     9
100
AcDbPolyline
 90
        2
 70
     0
 43
0.0
 10
64.6740656827256
 20
48.14947000180098
 10
64.5748469327504
 20
47.83458827444915
  0
LWPOLYLINE
  5
2CE
330
1F
100
AcDbEntity
  8
レイヤー 1
 62
     7
370
     9
100
AcDbPolyline
 90
        2
 70
     0
 43
0.0
 10
64.57553595184748
 20
47.83458827444915
 10
64.91384432849901
 20
47.86766119110754
  0
SPLINE
  5
2D2
330
1F
100
AcDbEntity
  8
レイヤー 1
 62
     7
370
     9
100
AcDbSpline
210
0.0
220
0.0
230
1.0
 70
     8
 71
     3
 72
    11
 73
     7
 74
     0
 42
0.000000001
 43
0.0000000001
 40
0.0
 40
0.0
 40
0.0
 40
0.0
 40
1.0
 40
1.0
 40
1.0
 40
2.0
 40
2.0
 40
2.0
 40
2.0
 10
60.78386386078154
 20
41.68784890966639
 30
0.0
 10
61.77674037963044
 20
40.48688862350829
 30
0.0
 10
63.55372063092233
 20
40.31807894473104
 30
0.0
 10
64.75399189798344
 20
41.30957742538595
 30
0.0
 10
64.80429029206806
 20
41.3502295521119
 30
0.0
 10
64.8959298319757
 20
41.434289881952
 30
0.0
 10
64.94140509238099
 20
41.48045416145433
 30
0.0
  0
LWPOLYLINE
  5
2D3
330
1F
100
AcDbEntity
  8
レイヤー 1
 62
     7
370
     9
100
AcDbPolyline
 90
       18
 70
     0
 43
0.0
 10
59.59392788017618
 20
43.48136561928744
 10
59.31487514587099
 20
44.31714578400906
 10
59.149510562579
 20
45.42302143477426
 10
59.20876620492521
 20
46.4896229970076
 10
59.48988599652165
 20
47.44460346551885
 10
59.9715103453596
 20
48.22250602608827
 10
60.62401143026585
 20
48.77165424643709
 10
61.39984693354421
 20
49.05277403803348
 10
62.24871846110972
 20
49.04795090435414
 10
63.10999233242222
 20
48.75856288359314
 10
63.92992505791159
 20
48.20045741498267
 10
64.6471939379407
 20
47.41428662524866
 10
65.21563469300685
 20
46.4551720421551
 10
65.59666225367556
 20
45.38650342263061
 10
65.76271585606452
 20
44.27993875276836
 10
65.70483825191235
 20
43.21402620963205
 10
65.42371846031602
 20
42.25835672202375
 10
64.94140509238099
 20
41.48045416145433
  0
LWPOLYLINE
  5
2E7
330
1F
100
AcDbEntity
  8
レイヤー 1
 62
     7
370
     9
100
AcDbPolyline
 90
        8
 70
     0
 43
0.0
 10
60.90099710728003
 20
48.79094678115449
 10
60.63916985040095
 20
48.66072217181205
 10
60.00527228111508
 20
48.12673237159832
 10
59.53536125692693
 20
47.36812234574631
 10
59.26182067539816
 20
46.43725754563181
 10
59.20463209034295
 20
45.39752772818341
 10
59.36655157814965
 20
44.31990186039725
 10
59.63664706419326
 20
43.50754834497535
  0
SPLINE
  5
2F1
330
1F
100
AcDbEntity
  8
レイヤー 1
 62
     7
370
     9
100
AcDbSpline
210
0.0
220
0.0
230
1.0
 70
     8
 71
     3
 72
     8
 73
     4
 74
     0
 42
0.000000001
 43
0.0000000001
 40
0.0
 40
0.0
 40
0.0
 40
0.0
 40
1.0
 40
1.0
 40
1.0
 40
1.0
 10
60.83209519757503
 20
41.72367790271298
 30
0.0
 10
61.61068677724148
 20
40.78385585433682
 30
0.0
 10
63.10723625603401
 20
40.46759608879088
 30
0.0
 10
64.20002054395519
 20
41.01329921365446
 30
0.0
  0
SPLINE
  5
2F2
330
1F
100
AcDbEntity
  8
レイヤー 1
 62
     7
370
     9
100
AcDbSpline
210
0.0
220
0.0
230
1.0
 70
     8
 71
     3
 72
     8
 73
     4
 74
     0
 42
0.000000001
 43
0.0000000001
 40
0.0
 40
0.0
 40
0.0
 40
0.0
 40
1.0
 40
1.0
 40
1.0
 40
1.0
 10
62.0240982354714
 20
42.60631136603399
 30
0.0
 10
62.34311407740557
 20
42.4064958278895
 30
0.0
 10
62.89984150782192
 20
42.34792920464025
 30
0.0
 10
63.25261928551157
 20
42.47815381398269
 30
0.0
  0
SPLINE
  5
2F3
330
1F
100
AcDbEntity
  8
レイヤー 1
 62
     7
370
     9
100
AcDbSpline
210
0.0
220
0.0
230
1.0
 70
     8
 71
     3
 72
    11
 73
     7
 74
     0
 42
0.000000001
 43
0.0000000001
 40
0.0
 40
0.0
 40
0.0
 40
0.0
 40
1.0
 40
1.0
 40
1.0
 40
2.0
 40
2.0
 40
2.0
 40
2.0
 10
61.71266160360489
 20
47.23720871730681
 30
0.0
 10
60.61436516290718
 20
46.71493224174294
 30
0.0
 10
60.14583217691319
 20
45.4002838045716
 30
0.0
 10
60.66948669067125
 20
44.30060932567986
 30
0.0
 10
60.68120001532105
 20
44.27304856179786
 30
0.0
 10
60.71013881739719
 20
44.21792703403386
 30
0.0
 10
60.72460821843521
 20
44.19105528924891
 30
0.0
  0
LWPOLYLINE
  5
2F4
330
1F
100
AcDbEntity
  8
レイヤー 1
 62
     7
370
     9
100
AcDbPolyline
 90
        2
 70
     0
 43
0.0
 10
66.7238974964493
 20
46.11479660821242
 10
65.70621629010651
 20
45.75995177323169
  0
LWPOLYLINE
  5
2F8
330
1F
100
AcDbEntity
  8
レイヤー 1
 62
     7
370
     9
100
AcDbPolyline
 90
        2
 70
     0
 43
0.0
 10
66.67428812146164
 20
46.29463059254246
 10
65.91498907651265
 20
46.02935824017823
  0
LWPOLYLINE
  5
2FC
330
1F
100
AcDbEntity
  8
レイヤー 1
 62
     7
370
     9
100
AcDbPolyline
 90
        2
 70
     0
 43
0.0
 10
66.7238974964493
 20
46.11479660821242
 10
66.67497714055872
 20
46.29463059254246
  0
LWPOLYLINE
  5
300
330
1F
100
AcDbEntity
  8
レイヤー 1
 62
     7
370
     9
100
AcDbPolyline
 90
        2
 70
     0
 43
0.0
 10
66.5916058298157
 20
46.49582416888106
 10
65.57392462347292
 20
46.14029031480327
  0
LWPOLYLINE
  5
304
330
1F
100
AcDbEntity
  8
レイヤー 1
 62
     7
370
     9
100
AcDbPolyline
 90
        2
 70
     0
 43
0.0
 10
66.52408195830475
 20
46.68737147786095
 10
65.7634048751616
 20
46.42278814459375
  0
LWPOLYLINE
  5
308
330
1F
100
AcDbEntity
  8
レイヤー 1
 62
     7
370
     9
100
AcDbPolyline
 90
        2
 70
     0
 43
0.0
 10
66.5916058298157
 20
46.49582416888106
 10
66.52339293920767
 20
46.6866824587639
  0
LWPOLYLINE
  5
30C
330
1F
100
AcDbEntity
  8
レイヤー 1
 62
     7
370
     9
100
AcDbPolyline
 90
        2
 70
     0
 43
0.0
 10
66.83000643739496
 20
45.72618983747624
 10
65.81232523105217
 20
45.3713450024955
  0
LWPOLYLINE
  5
310
330
1F
100
AcDbEntity
  8
レイヤー 1
 62
     7
370
     9
100
AcDbPolyline
 90
        2
 70
     0
 43
0.0
 10
66.79693352073656
 20
45.89155442076823
 10
66.0397015330787
 20
45.6276601065981
  0
LWPOLYLINE
  5
314
330
1F
100
AcDbEntity
  8
レイヤー 1
 62
     7
370
     9
100
AcDbPolyline
 90
        2
 70
     0
 43
0.0
 10
66.83000643739496
 20
45.72618983747624
 10
66.79693352073656
 20
45.89155442076823
  0
LWPOLYLINE
  5
318
330
1F
100
AcDbEntity
  8
レイヤー 1
 62
     7
370
     9
100
AcDbPolyline
 90
        2
 70
     0
 43
0.0
 10
66.66326381590892
 20
46.32288037552151
 10
65.9046537900569
 20
46.05760802315727
  0
LWPOLYLINE
  5
31C
330
1F
100
AcDbEntity
  8
レイヤー 1
 62
     7
370
     9
100
AcDbPolyline
 90
        2
 70
     0
 43
0.0
 10
66.66326381590892
 20
46.32288037552151
 10
66.59091681071862
 20
46.49582416888106
  0
LWPOLYLINE
  5
320
330
1F
100
AcDbEntity
  8
レイヤー 1
 62
     7
370
     9
100
AcDbPolyline
 90
        2
 70
     0
 43
0.0
 10
66.43519849478531
 20
46.86582742399689
 10
65.4182063075396
 20
46.51098258901615
  0
LWPOLYLINE
  5
324
330
1F
100
AcDbEntity
  8
レイヤー 1
 62
     7
370
     9
100
AcDbPolyline
 90
        2
 70
     0
 43
0.0
 10
66.34907110765408
 20
47.06839903852958
 10
65.58908304360801
 20
46.80450472435943
  0
LWPOLYLINE
  5
328
330
1F
100
AcDbEntity
  8
レイヤー 1
 62
     7
370
     9
100
AcDbPolyline
 90
        2
 70
     0
 43
0.0
 10
66.43519849478531
 20
46.86582742399689
 10
66.34907110765408
 20
47.06839903852958
  0
LWPOLYLINE
  5
32C
330
1F
100
AcDbEntity
  8
レイヤー 1
 62
     7
370
     9
100
AcDbPolyline
 90
        2
 70
     0
 43
0.0
 10
66.78935431066901
 20
45.92049322284433
 10
66.03005526571991
 20
45.65590988957715
  0
LWPOLYLINE
  5
330
330
1F
100
AcDbEntity
  8
レイヤー 1
 62
     7
370
     9
100
AcDbPolyline
 90
        2
 70
     0
 43
0.0
 10
66.78935431066901
 20
45.92049322284433
 10
66.7238974964493
 20
46.11479660821242
  0
LWPOLYLINE
  5
334
330
1F
100
AcDbEntity
  8
レイヤー 1
 62
     7
370
     9
100
AcDbPolyline
 90
        2
 70
     0
 43
0.0
 10
66.51236863365494
 20
46.71493224174294
 10
65.75238056960876
 20
46.45034890847576
  0
LWPOLYLINE
  5
338
330
1F
100
AcDbEntity
  8
レイヤー 1
 62
     7
370
     9
100
AcDbPolyline
 90
        2
 70
     0
 43
0.0
 10
66.51236863365494
 20
46.71493224174294
 10
66.43519849478531
 20
46.86582742399689
  0
LWPOLYLINE
  5
33C
330
1F
100
AcDbEntity
  8
レイヤー 1
 62
     7
370
     9
100
AcDbPolyline
 90
        2
 70
     0
 43
0.0
 10
66.91062167174977
 20
45.3341379712548
 10
65.89362948450406
 20
44.97860411717703
  0
LWPOLYLINE
  5
340
330
1F
100
AcDbEntity
  8
レイヤー 1
 62
     7
370
     9
100
AcDbPolyline
 90
        2
 70
     0
 43
0.0
 10
66.8947742325177
 20
45.4843441344117
 10
66.13478616847152
 20
45.21976080114452
  0
LWPOLYLINE
  5
344
330
1F
100
AcDbEntity
  8
レイヤー 1
 62
     7
370
     9
100
AcDbPolyline
 90
        2
 70
     0
 43
0.0
 10
66.91062167174977
 20
45.3341379712548
 10
66.89546325161467
 20
45.4843441344117
  0
LWPOLYLINE
  5
348
330
1F
100
AcDbEntity
  8
レイヤー 1
 62
     7
370
     9
100
AcDbPolyline
 90
        2
 70
     0
 43
0.0
 10
66.8885730606442
 20
45.5132829364878
 10
66.12858499659814
 20
45.24869960322062
  0
LWPOLYLINE
  5
34C
330
1F
100
AcDbEntity
  8
レイヤー 1
 62
     7
370
     9
100
AcDbPolyline
 90
        2
 70
     0
 43
0.0
 10
66.8885730606442
 20
45.5132829364878
 10
66.83000643739496
 20
45.72618983747624
  0
LWPOLYLINE
  5
350
330
1F
100
AcDbEntity
  8
レイヤー 1
 62
     7
370
     9
100
AcDbPolyline
 90
        2
 70
     0
 43
0.0
 10
66.33597974481012
 20
47.09595980241157
 10
65.57668069986102
 20
46.83137646914439
  0
LWPOLYLINE
  5
354
330
1F
100
AcDbEntity
  8
レイヤー 1
 62
     7
370
     9
100
AcDbPolyline
 90
        2
 70
     0
 43
0.0
 10
66.25605352955239
 20
47.22411735446286
 10
65.23768330411252
 20
46.86927251948214
  0
LWPOLYLINE
  5
358
330
1F
100
AcDbEntity
  8
レイヤー 1
 62
     7
370
     9
100
AcDbPolyline
 90
        2
 70
     0
 43
0.0
 10
66.33597974481012
 20
47.09595980241157
 10
66.25605352955239
 20
47.22411735446286
  0
LWPOLYLINE
  5
35C
330
1F
100
AcDbEntity
  8
レイヤー 1
 62
     7
370
     9
100
AcDbPolyline
 90
        2
 70
     0
 43
0.0
 10
66.15132262680078
 20
47.43495719816016
 10
65.3913345627546
 20
47.16968484579593
  0
LWPOLYLINE
  5
360
330
1F
100
AcDbEntity
  8
レイヤー 1
 62
     7
370
     9
100
AcDbPolyline
 90
        2
 70
     0
 43
0.0
 10
66.25605352955239
 20
47.22411735446286
 10
66.15132262680078
 20
47.43495719816016
  0
LWPOLYLINE
  5
364
330
1F
100
AcDbEntity
  8
レイヤー 1
 62
     7
370
     9
100
AcDbPolyline
 90
        2
 70
     0
 43
0.0
 10
66.95954202764034
 20
45.10193853554897
 10
66.20024298269124
 20
44.83873324047588
  0
LWPOLYLINE
  5
368
330
1F
100
AcDbEntity
  8
レイヤー 1
 62
     7
370
     9
100
AcDbPolyline
 90
        2
 70
     0
 43
0.0
 10
66.95954202764034
 20
45.10193853554897
 10
66.91062167174977
 20
45.3341379712548
  0
LWPOLYLINE
  5
36C
330
1F
100
AcDbEntity
  8
レイヤー 1
 62
     7
370
     9
100
AcDbPolyline
 90
        2
 70
     0
 43
0.0
 10
66.9636761422226
 20
44.94139708593633
 10
65.94737297407397
 20
44.58724127005264
  0
LWPOLYLINE
  5
370
330
1F
100
AcDbEntity
  8
レイヤー 1
 62
     7
370
     9
100
AcDbPolyline
 90
        2
 70
     0
 43
0.0
 10
66.96298712312563
 20
45.07368875256992
 10
66.2043770972736
 20
44.80910541930274
  0
LWPOLYLINE
  5
374
330
1F
100
AcDbEntity
  8
レイヤー 1
 62
     7
370
     9
100
AcDbPolyline
 90
        2
 70
     0
 43
0.0
 10
66.9636761422226
 20
44.94139708593633
 10
66.96298712312563
 20
45.07437777166697
  0
LWPOLYLINE
  5
378
330
1F
100
AcDbEntity
  8
レイヤー 1
 62
     7
370
     9
100
AcDbPolyline
 90
        2
 70
     0
 43
0.0
 10
66.13685322576265
 20
47.45976188565396
 10
65.3761761426195
 20
47.19586757148382
  0
LWPOLYLINE
  5
37C
330
1F
100
AcDbEntity
  8
レイヤー 1
 62
     7
370
     9
100
AcDbPolyline
 90
        2
 70
     0
 43
0.0
 10
66.05417093411671
 20
47.56587082659965
 10
65.03648972777393
 20
47.21033697252187
  0
LWPOLYLINE
  5
380
330
1F
100
AcDbEntity
  8
レイヤー 1
 62
     7
370
     9
100
AcDbPolyline
 90
        2
 70
     0
 43
0.0
 10
66.13685322576265
 20
47.45976188565396
 10
66.05417093411671
 20
47.56587082659965
  0
SPLINE
  5
384
330
1F
100
AcDbEntity
  8
レイヤー 1
 62
     7
370
     9
100
AcDbSpline
210
0.0
220
0.0
230
1.0
 70
     8
 71
     3
 72
     8
 73
     4
 74
     0
 42
0.000000001
 43
0.0000000001
 40
0.0
 40
0.0
 40
0.0
 40
0.0
 40
1.0
 40
1.0
 40
1.0
 40
1.0
 10
66.67428812146164
 20
46.29463059254246
 30
0.0
 10
66.67084302597647
 20
46.30083176441592
 30
0.0
 10
66.66533087320005
 20
46.31530116545396
 30
0.0
 10
66.66257479681184
 20
46.32288037552151
 30
0.0
  0
SPLINE
  5
385
330
1F
100
AcDbEntity
  8
レイヤー 1
 62
     7
370
     9
100
AcDbSpline
210
0.0
220
0.0
230
1.0
 70
     8
 71
     3
 72
     8
 73
     4
 74
     0
 42
0.000000001
 43
0.0000000001
 40
0.0
 40
0.0
 40
0.0
 40
0.0
 40
1.0
 40
1.0
 40
1.0
 40
1.0
 10
66.52408195830475
 20
46.68737147786095
 30
0.0
 10
66.52132588191654
 20
46.69426166883144
 30
0.0
 10
66.51512471004315
 20
46.70873106986949
 30
0.0
 10
66.51236863365494
 20
46.71493224174294
 30
0.0
  0
SPLINE
  5
386
330
1F
100
AcDbEntity
  8
レイヤー 1
 62
     7
370
     9
100
AcDbSpline
210
0.0
220
0.0
230
1.0
 70
     8
 71
     3
 72
     8
 73
     4
 74
     0
 42
0.000000001
 43
0.0000000001
 40
0.0
 40
0.0
 40
0.0
 40
0.0
 40
1.0
 40
1.0
 40
1.0
 40
1.0
 10
66.79693352073656
 20
45.89155442076823
 30
0.0
 10
66.79555548254251
 20
45.89982264993283
 30
0.0
 10
66.79211038705722
 20
45.91360303187383
 30
0.0
 10
66.78935431066901
 20
45.92049322284433
 30
0.0
  0
LWPOLYLINE
  5
387
330
1F
100
AcDbEntity
  8
レイヤー 1
 62
     7
370
     9
100
AcDbPolyline
 90
        2
 70
     0
 43
0.0
 10
65.93014749664775
 20
47.78360086126744
 10
65.1722264898927
 20
47.51832850890321
  0
LWPOLYLINE
  5
38B
330
1F
100
AcDbEntity
  8
レイヤー 1
 62
     7
370
     9
100
AcDbPolyline
 90
        2
 70
     0
 43
0.0
 10
66.05417093411671
 20
47.56587082659965
 10
65.92945847755067
 20
47.78360086126744
  0
SPLINE
  5
38F
330
1F
100
AcDbEntity
  8
レイヤー 1
 62
     7
370
     9
100
AcDbSpline
210
0.0
220
0.0
230
1.0
 70
     8
 71
     3
 72
     8
 73
     4
 74
     0
 42
0.000000001
 43
0.0000000001
 40
0.0
 40
0.0
 40
0.0
 40
0.0
 40
1.0
 40
1.0
 40
1.0
 40
1.0
 10
66.34907110765408
 20
47.06839903852958
 30
0.0
 10
66.3456260121688
 20
47.07528922950007
 30
0.0
 10
66.33873582119833
 20
47.08838059234402
 30
0.0
 10
66.33597974481012
 20
47.09595980241157
 30
0.0
  0
SPLINE
  5
390
330
1F
100
AcDbEntity
  8
レイヤー 1
 62
     7
370
     9
100
AcDbSpline
210
0.0
220
0.0
230
1.0
 70
     8
 71
     3
 72
     8
 73
     4
 74
     0
 42
0.000000001
 43
0.0000000001
 40
0.0
 40
0.0
 40
0.0
 40
0.0
 40
1.0
 40
1.0
 40
1.0
 40
1.0
 10
66.8947742325177
 20
45.4843441344117
 30
0.0
 10
66.89339619432354
 20
45.49123432538219
 30
0.0
 10
66.88995109883825
 20
45.5063927455173
 30
0.0
 10
66.8885730606442
 20
45.5132829364878
 30
0.0
  0
LWPOLYLINE
  5
391
330
1F
100
AcDbEntity
  8
レイヤー 1
 62
     7
370
     9
100
AcDbPolyline
 90
        2
 70
     0
 43
0.0
 10
67.00226121165741
 20
44.69335021099833
 10
66.24296216670842
 20
44.42876687773115
  0
LWPOLYLINE
  5
395
330
1F
100
AcDbEntity
  8
レイヤー 1
 62
     7
370
     9
100
AcDbPolyline
 90
        2
 70
     0
 43
0.0
 10
67.00226121165741
 20
44.69335021099833
 10
66.96298712312563
 20
44.94139708593633
  0
LWPOLYLINE
  5
399
330
1F
100
AcDbEntity
  8
レイヤー 1
 62
     7
370
     9
100
AcDbPolyline
 90
        2
 70
     0
 43
0.0
 10
65.91498907651265
 20
47.80633849147009
 10
65.15431199336939
 20
47.5417551582029
  0
LWPOLYLINE
  5
39D
330
1F
100
AcDbEntity
  8
レイヤー 1
 62
     7
370
     9
100
AcDbPolyline
 90
        2
 70
     0
 43
0.0
 10
65.83299580396368
 20
47.88902078311608
 10
64.81600361671786
 20
47.5334869290383
  0
LWPOLYLINE
  5
3A1
330
1F
100
AcDbEntity
  8
レイヤー 1
 62
     7
370
     9
100
AcDbPolyline
 90
        2
 70
     0
 43
0.0
 10
65.91498907651265
 20
47.80633849147009
 10
65.83299580396368
 20
47.88902078311608
  0
LWPOLYLINE
  5
3A5
330
1F
100
AcDbEntity
  8
レイヤー 1
 62
     7
370
     9
100
AcDbPolyline
 90
        2
 70
     0
 43
0.0
 10
66.99054788700761
 20
44.55141227700605
 10
65.97217766156774
 20
44.19656744202531
  0
LWPOLYLINE
  5
3A9
330
1F
100
AcDbEntity
  8
レイヤー 1
 62
     7
370
     9
100
AcDbPolyline
 90
        2
 70
     0
 43
0.0
 10
67.00432826894865
 20
44.66441140892223
 10
66.24502922399955
 20
44.39982807565505
  0
LWPOLYLINE
  5
3AD
330
1F
100
AcDbEntity
  8
レイヤー 1
 62
     7
370
     9
100
AcDbPolyline
 90
        2
 70
     0
 43
0.0
 10
66.99054788700761
 20
44.55141227700605
 10
67.00432826894865
 20
44.66441140892223
  0
SPLINE
  5
3B1
330
1F
100
AcDbEntity
  8
レイヤー 1
 62
     7
370
     9
100
AcDbSpline
210
0.0
220
0.0
230
1.0
 70
     8
 71
     3
 72
     8
 73
     4
 74
     0
 42
0.000000001
 43
0.0000000001
 40
0.0
 40
0.0
 40
0.0
 40
0.0
 40
1.0
 40
1.0
 40
1.0
 40
1.0
 10
66.15132262680078
 20
47.43495719816016
 30
0.0
 10
66.1471885122184
 20
47.44184738913066
 30
0.0
 10
66.13892028305389
 20
47.4535607137805
 30
0.0
 10
66.13616420666568
 20
47.45976188565396
 30
0.0
  0
SPLINE
  5
3B2
330
1F
100
AcDbEntity
  8
レイヤー 1
 62
     7
370
     9
100
AcDbSpline
210
0.0
220
0.0
230
1.0
 70
     8
 71
     3
 72
     8
 73
     4
 74
     0
 42
0.000000001
 43
0.0000000001
 40
0.0
 40
0.0
 40
0.0
 40
0.0
 40
1.0
 40
1.0
 40
1.0
 40
1.0
 10
66.96298712312563
 20
45.07368875256992
 30
0.0
 10
66.96229810402855
 20
45.08126796263747
 30
0.0
 10
66.96023104673742
 20
45.09642638277256
 30
0.0
 10
66.95954202764034
 20
45.10193853554897
 30
0.0
  0
LWPOLYLINE
  5
3B3
330
1F
100
AcDbEntity
  8
レイヤー 1
 62
     7
370
     9
100
AcDbPolyline
 90
        2
 70
     0
 43
0.0
 10
65.69105786997142
 20
48.11088493236618
 10
64.93106980592523
 20
47.84561258000194
  0
LWPOLYLINE
  5
3B7
330
1F
100
AcDbEntity
  8
レイヤー 1
 62
     7
370
     9
100
AcDbPolyline
 90
        2
 70
     0
 43
0.0
 10
65.83299580396368
 20
47.88902078311608
 10
65.69105786997142
 20
48.11088493236618
  0
LWPOLYLINE
  5
3BB
330
1F
100
AcDbEntity
  8
レイヤー 1
 62
     7
370
     9
100
AcDbPolyline
 90
        2
 70
     0
 43
0.0
 10
67.01604159359846
 20
44.28820698193296
 10
66.25674254864936
 20
44.02431266776281
  0
LWPOLYLINE
  5
3BF
330
1F
100
AcDbEntity
  8
レイヤー 1
 62
     7
370
     9
100
AcDbPolyline
 90
        2
 70
     0
 43
0.0
 10
67.01604159359846
 20
44.28820698193296
 10
66.99054788700761
 20
44.55141227700605
  0
LWPOLYLINE
  5
3C3
330
1F
100
AcDbEntity
  8
レイヤー 1
 62
     7
370
     9
100
AcDbPolyline
 90
        2
 70
     0
 43
0.0
 10
65.67314337344811
 20
48.13293354347178
 10
64.91384432849901
 20
47.86766119110754
  0
LWPOLYLINE
  5
3C7
330
1F
100
AcDbEntity
  8
レイヤー 1
 62
     7
370
     9
100
AcDbPolyline
 90
        2
 70
     0
 43
0.0
 10
65.59390617728735
 20
48.19012212852692
 10
64.57622497094457
 20
47.83458827444915
  0
LWPOLYLINE
  5
3CB
330
1F
100
AcDbEntity
  8
レイヤー 1
 62
     7
370
     9
100
AcDbPolyline
 90
        2
 70
     0
 43
0.0
 10
65.67314337344811
 20
48.13293354347178
 10
65.59459519638432
 20
48.19012212852692
  0
LWPOLYLINE
  5
3CF
330
1F
100
AcDbEntity
  8
レイヤー 1
 62
     7
370
     9
100
AcDbPolyline
 90
        2
 70
     0
 43
0.0
 10
66.98916984881345
 20
44.16625060175511
 10
65.9707996233737
 20
43.81209478587142
  0
LWPOLYLINE
  5
3D3
330
1F
100
AcDbEntity
  8
レイヤー 1
 62
     7
370
     9
100
AcDbPolyline
 90
        2
 70
     0
 43
0.0
 10
67.01604159359846
 20
44.25995719895391
 10
66.25605352955239
 20
43.99468484658968
  0
LWPOLYLINE
  5
3D7
330
1F
100
AcDbEntity
  8
レイヤー 1
 62
     7
370
     9
100
AcDbPolyline
 90
        2
 70
     0
 43
0.0
 10
66.98916984881345
 20
44.16625060175511
 10
67.01604159359846
 20
44.25995719895391
  0
SPLINE
  5
3DB
330
1F
100
AcDbEntity
  8
レイヤー 1
 62
     7
370
     9
100
AcDbSpline
210
0.0
220
0.0
230
1.0
 70
     8
 71
     3
 72
     8
 73
     4
 74
     0
 42
0.000000001
 43
0.0000000001
 40
0.0
 40
0.0
 40
0.0
 40
0.0
 40
1.0
 40
1.0
 40
1.0
 40
1.0
 10
65.93014749664775
 20
47.78360086126744
 30
0.0
 10
65.92601338206538
 20
47.78911301404383
 30
0.0
 10
65.91843417199783
 20
47.80151535779073
 30
0.0
 10
65.91567809560962
 20
47.80633849147009
 30
0.0
  0
SPLINE
  5
3DC
330
1F
100
AcDbEntity
  8
レイヤー 1
 62
     7
370
     9
100
AcDbSpline
210
0.0
220
0.0
230
1.0
 70
     8
 71
     3
 72
     8
 73
     4
 74
     0
 42
0.000000001
 43
0.0000000001
 40
0.0
 40
0.0
 40
0.0
 40
0.0
 40
1.0
 40
1.0
 40
1.0
 40
1.0
 10
67.00432826894865
 20
44.66441140892223
 30
0.0
 10
67.00363924985157
 20
44.6719906189898
 30
0.0
 10
67.00226121165741
 20
44.68714903912489
 30
0.0
 10
67.00226121165741
 20
44.69335021099833
 30
0.0
  0
LWPOLYLINE
  5
3DD
330
1F
100
AcDbEntity
  8
レイヤー 1
 62
     7
370
     9
100
AcDbPolyline
 90
        2
 70
     0
 43
0.0
 10
65.43267570857762
 20
48.41405333506816
 10
64.6740656827256
 20
48.14947000180098
  0
LWPOLYLINE
  5
3E1
330
1F
100
AcDbEntity
  8
レイヤー 1
 62
     7
370
     9
100
AcDbPolyline
 90
        2
 70
     0
 43
0.0
 10
65.59390617728735
 20
48.19012212852692
 10
65.43198668948054
 20
48.41405333506816
  0
LWPOLYLINE
  5
3E5
330
1F
100
AcDbEntity
  8
レイヤー 1
 62
     7
370
     9
100
AcDbPolyline
 90
        2
 70
     0
 43
0.0
 10
67.00088317346336
 20
43.89133198203217
 10
66.24158412851426
 20
43.62537061057088
  0
LWPOLYLINE
  5
3E9
330
1F
100
AcDbEntity
  8
レイヤー 1
 62
     7
370
     9
100
AcDbPolyline
 90
        2
 70
     0
 43
0.0
 10
67.00088317346336
 20
43.89133198203217
 10
66.98916984881345
 20
44.16625060175511
  0
SPLINE
  5
3ED
330
1F
100
AcDbEntity
  8
レイヤー 1
 62
     7
370
     9
100
AcDbSpline
210
0.0
220
0.0
230
1.0
 70
     8
 71
     3
 72
     8
 73
     4
 74
     0
 42
0.000000001
 43
0.0000000001
 40
0.0
 40
0.0
 40
0.0
 40
0.0
 40
1.0
 40
1.0
 40
1.0
 40
1.0
 10
65.69105786997142
 20
48.11088493236618
 30
0.0
 10
65.68623473629196
 20
48.11570806604553
 30
0.0
 10
65.67727748803037
 20
48.12673237159832
 30
0.0
 10
65.67314337344811
 20
48.13293354347178
 30
0.0
  0
LWPOLYLINE
  5
3EE
330
1F
100
AcDbEntity
  8
レイヤー 1
 62
     7
370
     9
100
AcDbPolyline
 90
        2
 70
     0
 43
0.0
 10
65.41338317386027
 20
48.43472390797966
 10
64.65408412891117
 20
48.17082959380953
  0
LWPOLYLINE
  5
3F2
330
1F
100
AcDbEntity
  8
レイヤー 1
 62
     7
370
     9
100
AcDbPolyline
 90
        2
 70
     0
 43
0.0
 10
65.33828009228176
 20
48.46848584373511
 10
64.3199098668419
 20
48.11295198965733
  0
LWPOLYLINE
  5
3F6
330
1F
100
AcDbEntity
  8
レイヤー 1
 62
     7
370
     9
100
AcDbPolyline
 90
        2
 70
     0
 43
0.0
 10
65.41338317386027
 20
48.43472390797966
 10
65.33828009228176
 20
48.46848584373511
  0
LWPOLYLINE
  5
3FA
330
1F
100
AcDbEntity
  8
レイヤー 1
 62
     7
370
     9
100
AcDbPolyline
 90
        2
 70
     0
 43
0.0
 10
67.01604159359846
 20
44.25995719895391
 10
67.01604159359846
 20
44.28820698193296
  0
LWPOLYLINE
  5
3FE
330
1F
100
AcDbEntity
  8
レイヤー 1
 62
     7
370
     9
100
AcDbPolyline
 90
        2
 70
     0
 43
0.0
 10
66.95954202764034
 20
43.79073519386289
 10
65.9432388594916
 20
43.4365793779792
  0
LWPOLYLINE
  5
402
330
1F
100
AcDbEntity
  8
レイヤー 1
 62
     7
370
     9
100
AcDbPolyline
 90
        2
 70
     0
 43
0.0
 10
66.9995051352692
 20
43.86239317995607
 10
66.23951707122313
 20
43.59849886578594
  0
LWPOLYLINE
  5
406
330
1F
100
AcDbEntity
  8
レイヤー 1
 62
     7
370
     9
100
AcDbPolyline
 90
        2
 70
     0
 43
0.0
 10
66.95954202764034
 20
43.79073519386289
 10
67.00019415436628
 20
43.86239317995607
  0
LWPOLYLINE
  5
40A
330
1F
100
AcDbEntity
  8
レイヤー 1
 62
     7
370
     9
100
AcDbPolyline
 90
        2
 70
     0
 43
0.0
 10
65.15844610795176
 20
48.6917280311793
 10
64.39845804390558
 20
48.42783371700916
  0
LWPOLYLINE
  5
40E
330
1F
100
AcDbEntity
  8
レイヤー 1
 62
     7
370
     9
100
AcDbPolyline
 90
        2
 70
     0
 43
0.0
 10
65.33828009228176
 20
48.46848584373511
 10
65.15844610795176
 20
48.6917280311793
  0
LWPOLYLINE
  5
412
330
1F
100
AcDbEntity
  8
レイヤー 1
 62
     7
370
     9
100
AcDbPolyline
 90
        2
 70
     0
 43
0.0
 10
66.95747497034921
 20
43.502725211296
 10
66.19817592540011
 20
43.23883089712585
  0
LWPOLYLINE
  5
416
330
1F
100
AcDbEntity
  8
レイヤー 1
 62
     7
370
     9
100
AcDbPolyline
 90
        2
 70
     0
 43
0.0
 10
66.95747497034921
 20
43.502725211296
 10
66.95954202764034
 20
43.79073519386289
  0
SPLINE
  5
41A
330
1F
100
AcDbEntity
  8
レイヤー 1
 62
     7
370
     9
100
AcDbSpline
210
0.0
220
0.0
230
1.0
 70
     8
 71
     3
 72
     8
 73
     4
 74
     0
 42
0.000000001
 43
0.0000000001
 40
0.0
 40
0.0
 40
0.0
 40
0.0
 40
1.0
 40
1.0
 40
1.0
 40
1.0
 10
65.43267570857762
 20
48.41405333506816
 30
0.0
 10
65.42785257489828
 20
48.41956548784457
 30
0.0
 10
65.4182063075396
 20
48.42921175520326
 30
0.0
 10
65.41407219295724
 20
48.43472390797966
 30
0.0
  0
SPLINE
  5
41B
330
1F
100
AcDbEntity
  8
レイヤー 1
 62
     7
370
     9
100
AcDbSpline
210
0.0
220
0.0
230
1.0
 70
     8
 71
     3
 72
     8
 73
     4
 74
     0
 42
0.000000001
 43
0.0000000001
 40
0.0
 40
0.0
 40
0.0
 40
0.0
 40
1.0
 40
1.0
 40
1.0
 40
1.0
 10
66.9995051352692
 20
43.86239317995607
 30
0.0
 10
66.9995051352692
 20
43.86928337092658
 30
0.0
 10
67.00019415436628
 20
43.88375277196462
 30
0.0
 10
67.00088317346336
 20
43.89133198203217
 30
0.0
  0
LWPOLYLINE
  5
41C
330
1F
100
AcDbEntity
  8
レイヤー 1
 62
     7
370
     9
100
AcDbPolyline
 90
        2
 70
     0
 43
0.0
 10
65.13846455413733
 20
48.7110205658967
 10
64.37916550918823
 20
48.44574821353245
  0
LWPOLYLINE
  5
420
330
1F
100
AcDbEntity
  8
レイヤー 1
 62
     7
370
     9
100
AcDbPolyline
 90
        2
 70
     0
 43
0.0
 10
65.0674955871412
 20
48.71997781415834
 10
64.05119241899246
 20
48.36444396008056
  0
LWPOLYLINE
  5
424
330
1F
100
AcDbEntity
  8
レイヤー 1
 62
     7
370
     9
100
AcDbPolyline
 90
        2
 70
     0
 43
0.0
 10
65.13846455413733
 20
48.7110205658967
 10
65.06680656804411
 20
48.71997781415834
  0
LWPOLYLINE
  5
428
330
1F
100
AcDbEntity
  8
レイヤー 1
 62
     7
370
     9
100
AcDbPolyline
 90
        2
 70
     0
 43
0.0
 10
66.9037314807793
 20
43.4269331106205
 10
65.8867392935336
 20
43.07208827563977
  0
LWPOLYLINE
  5
42C
330
1F
100
AcDbEntity
  8
レイヤー 1
 62
     7
370
     9
100
AcDbPolyline
 90
        2
 70
     0
 43
0.0
 10
66.95334085576695
 20
43.47654248560809
 10
66.19404181081785
 20
43.21058111414681
  0
LWPOLYLINE
  5
430
330
1F
100
AcDbEntity
  8
レイヤー 1
 62
     7
370
     9
100
AcDbPolyline
 90
        2
 70
     0
 43
0.0
 10
66.9037314807793
 20
43.4269331106205
 10
66.95334085576695
 20
43.47654248560809
  0
LWPOLYLINE
  5
434
330
1F
100
AcDbEntity
  8
レイヤー 1
 62
     7
370
     9
100
AcDbPolyline
 90
        2
 70
     0
 43
0.0
 10
64.87112514448194
 20
48.94184196340844
 10
64.11113708043575
 20
48.67794764923831
  0
LWPOLYLINE
  5
438
330
1F
100
AcDbEntity
  8
レイヤー 1
 62
     7
370
     9
100
AcDbPolyline
 90
        2
 70
     0
 43
0.0
 10
65.0674955871412
 20
48.71997781415834
 10
64.87112514448194
 20
48.94115294431138
  0
LWPOLYLINE
  5
43C
330
1F
100
AcDbEntity
  8
レイヤー 1
 62
     7
370
     9
100
AcDbPolyline
 90
        2
 70
     0
 43
0.0
 10
66.885816984256
 20
43.12927686069492
 10
66.1265179393069
 20
42.86538254652477
  0
LWPOLYLINE
  5
440
330
1F
100
AcDbEntity
  8
レイヤー 1
 62
     7
370
     9
100
AcDbPolyline
 90
        2
 70
     0
 43
0.0
 10
66.885816984256
 20
43.12927686069492
 10
66.9037314807793
 20
43.4269331106205
  0
SPLINE
  5
444
330
1F
100
AcDbEntity
  8
レイヤー 1
 62
     7
370
     9
100
AcDbSpline
210
0.0
220
0.0
230
1.0
 70
     8
 71
     3
 72
     8
 73
     4
 74
     0
 42
0.000000001
 43
0.0000000001
 40
0.0
 40
0.0
 40
0.0
 40
0.0
 40
1.0
 40
1.0
 40
1.0
 40
1.0
 10
65.15844610795176
 20
48.6917280311793
 30
0.0
 10
65.15362297427242
 20
48.69655116485865
 30
0.0
 10
65.14397670691363
 20
48.70619743221735
 30
0.0
 10
65.13846455413733
 20
48.7110205658967
 30
0.0
  0
SPLINE
  5
445
330
1F
100
AcDbEntity
  8
レイヤー 1
 62
     7
370
     9
100
AcDbSpline
210
0.0
220
0.0
230
1.0
 70
     8
 71
     3
 72
     8
 73
     4
 74
     0
 42
0.000000001
 43
0.0000000001
 40
0.0
 40
0.0
 40
0.0
 40
0.0
 40
1.0
 40
1.0
 40
1.0
 40
1.0
 10
66.95334085576695
 20
43.47654248560809
 30
0.0
 10
66.95402987486392
 20
43.48274365748155
 30
0.0
 10
66.95609693215505
 20
43.49652403942254
 30
0.0
 10
66.95747497034921
 20
43.502725211296
 30
0.0
  0
LWPOLYLINE
  5
446
330
1F
100
AcDbEntity
  8
レイヤー 1
 62
     7
370
     9
100
AcDbPolyline
 90
        2
 70
     0
 43
0.0
 10
64.84976555247334
 20
48.95906744083469
 10
64.08977748842727
 20
48.6931060693734
  0
LWPOLYLINE
  5
44A
330
1F
100
AcDbEntity
  8
レイヤー 1
 62
     7
370
     9
100
AcDbPolyline
 90
        2
 70
     0
 43
0.0
 10
64.78637579554476
 20
48.94322000160254
 10
63.76869458920197
 20
48.58975320481591
  0
LWPOLYLINE
  5
44E
330
1F
100
AcDbEntity
  8
レイヤー 1
 62
     7
370
     9
100
AcDbPolyline
 90
        2
 70
     0
 43
0.0
 10
64.84976555247334
 20
48.95906744083469
 10
64.78637579554476
 20
48.94322000160254
  0
LWPOLYLINE
  5
452
330
1F
100
AcDbEntity
  8
レイヤー 1
 62
     7
370
     9
100
AcDbPolyline
 90
        2
 70
     0
 43
0.0
 10
66.82104918913336
 20
43.07760042841616
 10
65.8026789636935
 20
42.72137755524133
  0
LWPOLYLINE
  5
456
330
1F
100
AcDbEntity
  8
レイヤー 1
 62
     7
370
     9
100
AcDbPolyline
 90
        2
 70
     0
 43
0.0
 10
66.87961581238261
 20
43.10309413500701
 10
66.12100578653059
 20
42.83782178264278
  0
LWPOLYLINE
  5
45A
330
1F
100
AcDbEntity
  8
レイヤー 1
 62
     7
370
     9
100
AcDbPolyline
 90
        2
 70
     0
 43
0.0
 10
66.82104918913336
 20
43.07760042841616
 10
66.87961581238261
 20
43.10309413500701
  0
LWPOLYLINE
  5
45E
330
1F
100
AcDbEntity
  8
レイヤー 1
 62
     7
370
     9
100
AcDbPolyline
 90
       14
 70
     0
 43
0.0
 10
63.86998039646829
 20
43.05692985550466
 10
64.19313035298472
 20
43.63984001160894
 10
64.31577575225964
 20
44.37226731177306
 10
64.22275817415783
 20
45.16463927338052
 10
63.92579094332933
 20
45.92256028013549
 10
63.46001403372355
 20
46.55507981122734
 10
62.8826160303957
 20
46.98433870868948
 10
62.26043178575952
 20
47.16003857843722
 10
61.67200947687894
 20
47.05944179026793
 10
61.18625101345873
 20
46.69563970702555
 10
60.86241203784522
 20
46.11272955092127
 10
60.7397666385703
 20
45.38099126985421
 10
60.83347323576908
 20
44.5879302891497
 10
60.91615552741513
 20
44.3109446121356
  0
SPLINE
  5
46E
330
1F
100
AcDbEntity
  8
レイヤー 1
 62
     7
370
     9
100
AcDbSpline
210
0.0
220
0.0
230
1.0
 70
     8
 71
     3
 72
     8
 73
     4
 74
     0
 42
0.000000001
 43
0.0000000001
 40
0.0
 40
0.0
 40
0.0
 40
0.0
 40
1.0
 40
1.0
 40
1.0
 40
1.0
 10
62.21564554445132
 20
42.74824930002627
 30
0.0
 10
62.74825730647098
 20
42.44508089732429
 30
0.0
 10
63.48344068302328
 20
42.58150667854019
 30
0.0
 10
63.87066941556537
 20
43.05624083640761
 30
0.0
  0
LWPOLYLINE
  5
46F
330
1F
100
AcDbEntity
  8
レイヤー 1
 62
     7
370
     9
100
AcDbPolyline
 90
        2
 70
     0
 43
0.0
 10
64.57071281816815
 20
49.16163905536737
 10
63.81210279231613
 20
48.89705572210019
  0
LWPOLYLINE
  5
473
330
1F
100
AcDbEntity
  8
レイヤー 1
 62
     7
370
     9
100
AcDbPolyline
 90
        2
 70
     0
 43
0.0
 10
64.78637579554476
 20
48.94322000160254
 10
64.57071281816815
 20
49.16163905536737
  0
LWPOLYLINE
  5
477
330
1F
100
AcDbEntity
  8
レイヤー 1
 62
     7
370
     9
100
AcDbPolyline
 90
        2
 70
     0
 43
0.0
 10
66.7865982342808
 20
42.77236496842303
 10
66.02661017023473
 20
42.50640359696175
  0
LWPOLYLINE
  5
47B
330
1F
100
AcDbEntity
  8
レイヤー 1
 62
     7
370
     9
100
AcDbPolyline
 90
        2
 70
     0
 43
0.0
 10
66.7865982342808
 20
42.77236496842303
 10
66.82104918913336
 20
43.07760042841616
  0
SPLINE
  5
47F
330
1F
100
AcDbEntity
  8
レイヤー 1
 62
     7
370
     9
100
AcDbSpline
210
0.0
220
0.0
230
1.0
 70
     8
 71
     3
 72
     8
 73
     4
 74
     0
 42
0.000000001
 43
0.0000000001
 40
0.0
 40
0.0
 40
0.0
 40
0.0
 40
1.0
 40
1.0
 40
1.0
 40
1.0
 10
64.87112514448194
 20
48.94184196340844
 30
0.0
 10
64.86561299170552
 20
48.94528705889368
 30
0.0
 10
64.85596672434684
 20
48.95424430715534
 30
0.0
 10
64.85045457157042
 20
48.95906744083469
 30
0.0
  0
SPLINE
  5
480
330
1F
100
AcDbEntity
  8
レイヤー 1
 62
     7
370
     9
100
AcDbSpline
210
0.0
220
0.0
230
1.0
 70
     8
 71
     3
 72
     8
 73
     4
 74
     0
 42
0.000000001
 43
0.0000000001
 40
0.0
 40
0.0
 40
0.0
 40
0.0
 40
1.0
 40
1.0
 40
1.0
 40
1.0
 10
66.87961581238261
 20
43.10309413500701
 30
0.0
 10
66.88099385057666
 20
43.10929530688047
 30
0.0
 10
66.88512796515892
 20
43.12238666972441
 30
0.0
 10
66.885816984256
 20
43.12927686069492
 30
0.0
  0
LWPOLYLINE
  5
481
330
1F
100
AcDbEntity
  8
レイヤー 1
 62
     7
370
     9
100
AcDbPolyline
 90
        2
 70
     0
 43
0.0
 10
64.55004224525663
 20
49.17610845640543
 10
63.78936516211348
 20
48.91083610404119
  0
SPLINE
  5
485
330
1F
100
AcDbEntity
  8
レイヤー 1
 62
     7
370
     9
100
AcDbSpline
210
0.0
220
0.0
230
1.0
 70
     8
 71
     3
 72
     8
 73
     4
 74
     0
 42
0.000000001
 43
0.0000000001
 40
0.0
 40
0.0
 40
0.0
 40
0.0
 40
1.0
 40
1.0
 40
1.0
 40
1.0
 10
64.57071281816815
 20
49.16163905536737
 30
0.0
 10
64.56520066539173
 20
49.16508415085262
 30
0.0
 10
64.55417635983889
 20
49.17197434182313
 30
0.0
 10
64.55004224525663
 20
49.17610845640543
 30
0.0
  0
LWPOLYLINE
  5
486
330
1F
100
AcDbEntity
  8
レイヤー 1
 62
     7
370
     9
100
AcDbPolyline
 90
        2
 70
     0
 43
0.0
 10
64.26203226268973
 20
49.34905224976497
 10
63.50273321774063
 20
49.08377989740073
  0
LWPOLYLINE
  5
48A
330
1F
100
AcDbEntity
  8
レイヤー 1
 62
     7
370
     9
100
AcDbPolyline
 90
        2
 70
     0
 43
0.0
 10
64.4790732782605
 20
49.15199278800868
 10
64.26203226268973
 20
49.34905224976497
  0
LWPOLYLINE
  5
48E
330
1F
100
AcDbEntity
  8
レイヤー 1
 62
     7
370
     9
100
AcDbPolyline
 90
        2
 70
     0
 43
0.0
 10
66.65912970132655
 20
42.43405659177149
 10
65.90120869457161
 20
42.16947325850431
  0
LWPOLYLINE
  5
492
330
1F
100
AcDbEntity
  8
レイヤー 1
 62
     7
370
     9
100
AcDbPolyline
 90
        2
 70
     0
 43
0.0
 10
66.65912970132655
 20
42.43405659177149
 10
66.70805005721712
 20
42.72275559343544
  0
LWPOLYLINE
  5
496
330
1F
100
AcDbEntity
  8
レイヤー 1
 62
     7
370
     9
100
AcDbPolyline
 90
        2
 70
     0
 43
0.0
 10
66.77833000511617
 20
42.74824930002627
 10
66.0183419410701
 20
42.48228792856499
  0
SPLINE
  5
49A
330
1F
100
AcDbEntity
  8
レイヤー 1
 62
     7
370
     9
100
AcDbSpline
210
0.0
220
0.0
230
1.0
 70
     8
 71
     3
 72
     8
 73
     4
 74
     0
 42
0.000000001
 43
0.0000000001
 40
0.0
 40
0.0
 40
0.0
 40
0.0
 40
1.0
 40
1.0
 40
1.0
 40
1.0
 10
66.77833000511617
 20
42.74824930002627
 30
0.0
 10
66.7803970624073
 20
42.75307243370563
 30
0.0
 10
66.7838421578926
 20
42.76547477745252
 30
0.0
 10
66.7865982342808
 20
42.77236496842303
 30
0.0
  0
LWPOLYLINE
  5
49B
330
1F
100
AcDbEntity
  8
レイヤー 1
 62
     7
370
     9
100
AcDbPolyline
 90
        2
 70
     0
 43
0.0
 10
64.24067267068114
 20
49.36076557441481
 10
63.48068460663507
 20
49.09687126024468
  0
SPLINE
  5
49F
330
1F
100
AcDbEntity
  8
レイヤー 1
 62
     7
370
     9
100
AcDbSpline
210
0.0
220
0.0
230
1.0
 70
     8
 71
     3
 72
     8
 73
     4
 74
     0
 42
0.000000001
 43
0.0000000001
 40
0.0
 40
0.0
 40
0.0
 40
0.0
 40
1.0
 40
1.0
 40
1.0
 40
1.0
 10
64.26203226268973
 20
49.34905224976497
 30
0.0
 10
64.25652010991331
 20
49.35180832615316
 30
0.0
 10
64.24687384255463
 20
49.35800949802662
 30
0.0
 10
64.24136168977822
 20
49.36076557441481
 30
0.0
  0
LWPOLYLINE
  5
4A0
330
1F
100
AcDbEntity
  8
レイヤー 1
 62
     7
370
     9
100
AcDbPolyline
 90
        2
 70
     0
 43
0.0
 10
66.50685648087853
 20
42.11848584532261
 10
65.74893547412358
 20
41.85390251205543
  0
LWPOLYLINE
  5
4A4
330
1F
100
AcDbEntity
  8
レイヤー 1
 62
     7
370
     9
100
AcDbPolyline
 90
        2
 70
     0
 43
0.0
 10
66.50685648087853
 20
42.11848584532261
 10
66.56611212322485
 20
42.38100212129865
  0
LWPOLYLINE
  5
4A8
330
1F
100
AcDbEntity
  8
レイヤー 1
 62
     7
370
     9
100
AcDbPolyline
 90
        2
 70
     0
 43
0.0
 10
66.64948343396787
 20
42.4106299424718
 10
65.89018438901877
 20
42.1460466092046
  0
SPLINE
  5
4AC
330
1F
100
AcDbEntity
  8
レイヤー 1
 62
     7
370
     9
100
AcDbSpline
210
0.0
220
0.0
230
1.0
 70
     8
 71
     3
 72
     8
 73
     4
 74
     0
 42
0.000000001
 43
0.0000000001
 40
0.0
 40
0.0
 40
0.0
 40
0.0
 40
1.0
 40
1.0
 40
1.0
 40
1.0
 10
66.64948343396787
 20
42.4106299424718
 30
0.0
 10
66.65223951035608
 20
42.41683111434524
 30
0.0
 10
66.65844068222947
 20
42.427166400801
 30
0.0
 10
66.65981872042363
 20
42.43405659177149
 30
0.0
  0
LWPOLYLINE
  5
4AD
330
1F
100
AcDbEntity
  8
レイヤー 1
 62
     7
370
     9
100
AcDbPolyline
 90
        2
 70
     0
 43
0.0
 10
63.94715053533793
 20
49.50339252750416
 10
63.18785149038882
 20
49.23880919423698
  0
LWPOLYLINE
  5
4B1
330
1F
100
AcDbEntity
  8
レイヤー 1
 62
     7
370
     9
100
AcDbPolyline
 90
        2
 70
     0
 43
0.0
 10
64.15730135993812
 20
49.33182677233872
 10
63.94715053533793
 20
49.50339252750416
  0
LWPOLYLINE
  5
4B5
330
1F
100
AcDbEntity
  8
レイヤー 1
 62
     7
370
     9
100
AcDbPolyline
 90
        2
 70
     0
 43
0.0
 10
63.92441290513528
 20
49.51303879486287
 10
63.1644248410891
 20
49.24776644249862
  0
SPLINE
  5
4B9
330
1F
100
AcDbEntity
  8
レイヤー 1
 62
     7
370
     9
100
AcDbSpline
210
0.0
220
0.0
230
1.0
 70
     8
 71
     3
 72
     8
 73
     4
 74
     0
 42
0.000000001
 43
0.0000000001
 40
0.0
 40
0.0
 40
0.0
 40
0.0
 40
1.0
 40
1.0
 40
1.0
 40
1.0
 10
63.94715053533793
 20
49.50339252750416
 30
0.0
 10
63.94094936346443
 20
49.50614860389236
 30
0.0
 10
63.93130309610575
 20
49.51097173757171
 30
0.0
 10
63.92441290513528
 20
49.51303879486287
 30
0.0
  0
LWPOLYLINE
  5
4BA
330
1F
100
AcDbEntity
  8
レイヤー 1
 62
     7
370
     9
100
AcDbPolyline
 90
        2
 70
     0
 43
0.0
 10
66.32977857293673
 20
41.82771978636752
 10
65.57116854708471
 20
41.56313645310034
  0
LWPOLYLINE
  5
4BE
330
1F
100
AcDbEntity
  8
レイヤー 1
 62
     7
370
     9
100
AcDbPolyline
 90
        2
 70
     0
 43
0.0
 10
66.32977857293673
 20
41.82771978636752
 10
66.39523538715645
 20
42.06198627936452
  0
LWPOLYLINE
  5
4C2
330
1F
100
AcDbEntity
  8
レイヤー 1
 62
     7
370
     9
100
AcDbPolyline
 90
        2
 70
     0
 43
0.0
 10
66.49583217532569
 20
42.09712625331406
 10
65.7365331303767
 20
41.83185390094982
  0
SPLINE
  5
4C6
330
1F
100
AcDbEntity
  8
レイヤー 1
 62
     7
370
     9
100
AcDbSpline
210
0.0
220
0.0
230
1.0
 70
     8
 71
     3
 72
     8
 73
     4
 74
     0
 42
0.000000001
 43
0.0000000001
 40
0.0
 40
0.0
 40
0.0
 40
0.0
 40
1.0
 40
1.0
 40
1.0
 40
1.0
 10
66.49583217532569
 20
42.09712625331406
 30
0.0
 10
66.4985882517139
 20
42.10263840609046
 30
0.0
 10
66.50410040449032
 20
42.11159565435212
 30
0.0
 10
66.50685648087853
 20
42.11848584532261
 30
0.0
  0
LWPOLYLINE
  5
4C7
330
1F
100
AcDbEntity
  8
レイヤー 1
 62
     7
370
     9
100
AcDbPolyline
 90
        2
 70
     0
 43
0.0
 10
63.62744567430667
 20
49.62328185039085
 10
62.8674576102606
 20
49.35800949802662
  0
LWPOLYLINE
  5
4CB
330
1F
100
AcDbEntity
  8
レイヤー 1
 62
     7
370
     9
100
AcDbPolyline
 90
        2
 70
     0
 43
0.0
 10
63.82588317425706
 20
49.47789882091331
 10
63.62744567430667
 20
49.62328185039085
  0
LWPOLYLINE
  5
4CF
330
1F
100
AcDbEntity
  8
レイヤー 1
 62
     7
370
     9
100
AcDbPolyline
 90
        2
 70
     0
 43
0.0
 10
63.60470804410403
 20
49.62948302226431
 10
62.84609801825201
 20
49.36558870809417
  0
SPLINE
  5
4D3
330
1F
100
AcDbEntity
  8
レイヤー 1
 62
     7
370
     9
100
AcDbSpline
210
0.0
220
0.0
230
1.0
 70
     8
 71
     3
 72
     8
 73
     4
 74
     0
 42
0.000000001
 43
0.0000000001
 40
0.0
 40
0.0
 40
0.0
 40
0.0
 40
1.0
 40
1.0
 40
1.0
 40
1.0
 10
63.62744567430667
 20
49.62328185039085
 30
0.0
 10
63.62193352153025
 20
49.62534890768201
 30
0.0
 10
63.61022019688045
 20
49.62810498407021
 30
0.0
 10
63.60470804410403
 20
49.62948302226431
 30
0.0
  0
LWPOLYLINE
  5
4D4
330
1F
100
AcDbEntity
  8
レイヤー 1
 62
     7
370
     9
100
AcDbPolyline
 90
        2
 70
     0
 43
0.0
 10
66.12996303479218
 20
41.56382547219738
 10
65.36997497074611
 20
41.29993115802725
  0
LWPOLYLINE
  5
4D8
330
1F
100
AcDbEntity
  8
レイヤー 1
 62
     7
370
     9
100
AcDbPolyline
 90
        2
 70
     0
 43
0.0
 10
66.12996303479218
 20
41.56382547219738
 10
66.19955396359427
 20
41.76708610582713
  0
LWPOLYLINE
  5
4DC
330
1F
100
AcDbEntity
  8
レイヤー 1
 62
     7
370
     9
100
AcDbPolyline
 90
        2
 70
     0
 43
0.0
 10
66.31668721009277
 20
41.80842725165013
 10
65.55669914604658
 20
41.54384391838293
  0
SPLINE
  5
4E0
330
1F
100
AcDbEntity
  8
レイヤー 1
 62
     7
370
     9
100
AcDbSpline
210
0.0
220
0.0
230
1.0
 70
     8
 71
     3
 72
     8
 73
     4
 74
     0
 42
0.000000001
 43
0.0000000001
 40
0.0
 40
0.0
 40
0.0
 40
0.0
 40
1.0
 40
1.0
 40
1.0
 40
1.0
 10
66.31668721009277
 20
41.80842725165013
 30
0.0
 10
66.32013230557794
 20
41.81256136623243
 30
0.0
 10
66.32771151564549
 20
41.82358567178522
 30
0.0
 10
66.3304675920337
 20
41.82771978636752
 30
0.0
  0
LWPOLYLINE
  5
4E1
330
1F
100
AcDbEntity
  8
レイヤー 1
 62
     7
370
     9
100
AcDbPolyline
 90
        2
 70
     0
 43
0.0
 10
63.30705179417845
 20
49.70734218023095
 10
62.54706373013238
 20
49.44206982786672
  0
LWPOLYLINE
  5
4E5
330
1F
100
AcDbEntity
  8
レイヤー 1
 62
     7
370
     9
100
AcDbPolyline
 90
        2
 70
     0
 43
0.0
 10
63.48688577850857
 20
49.5895199146354
 10
63.30705179417845
 20
49.70734218023095
  0
LWPOLYLINE
  5
4E9
330
1F
100
AcDbEntity
  8
レイヤー 1
 62
     7
370
     9
100
AcDbPolyline
 90
        2
 70
     0
 43
0.0
 10
63.28362514487873
 20
49.71147629481325
 10
62.5250151190267
 20
49.44689296154607
  0
SPLINE
  5
4ED
330
1F
100
AcDbEntity
  8
レイヤー 1
 62
     7
370
     9
100
AcDbSpline
210
0.0
220
0.0
230
1.0
 70
     8
 71
     3
 72
     8
 73
     4
 74
     0
 42
0.000000001
 43
0.0000000001
 40
0.0
 40
0.0
 40
0.0
 40
0.0
 40
1.0
 40
1.0
 40
1.0
 40
1.0
 10
63.30705179417845
 20
49.70734218023095
 30
0.0
 10
63.30085062230506
 20
49.708031199328
 30
0.0
 10
63.29051533584931
 20
49.7107872757162
 30
0.0
 10
63.28362514487873
 20
49.71147629481325
 30
0.0
  0
LWPOLYLINE
  5
4EE
330
1F
100
AcDbEntity
  8
レイヤー 1
 62
     7
370
     9
100
AcDbPolyline
 90
        2
 70
     0
 43
0.0
 10
65.90809888554207
 20
41.3295589792004
 10
65.148110821496
 20
41.0649756459332
  0
LWPOLYLINE
  5
4F2
330
1F
100
AcDbEntity
  8
レイヤー 1
 62
     7
370
     9
100
AcDbPolyline
 90
        2
 70
     0
 43
0.0
 10
65.90809888554207
 20
41.3295589792004
 10
65.97631177615
 20
41.49836865797764
  0
LWPOLYLINE
  5
4F6
330
1F
100
AcDbEntity
  8
レイヤー 1
 62
     7
370
     9
100
AcDbPolyline
 90
        2
 70
     0
 43
0.0
 10
66.11480461465709
 20
41.54659999477114
 10
65.35550556970799
 20
41.28201666150395
  0
SPLINE
  5
4FA
330
1F
100
AcDbEntity
  8
レイヤー 1
 62
     7
370
     9
100
AcDbSpline
210
0.0
220
0.0
230
1.0
 70
     8
 71
     3
 72
     8
 73
     4
 74
     0
 42
0.000000001
 43
0.0000000001
 40
0.0
 40
0.0
 40
0.0
 40
0.0
 40
1.0
 40
1.0
 40
1.0
 40
1.0
 10
66.11480461465709
 20
41.54659999477114
 30
0.0
 10
66.11893872923935
 20
41.55073410935344
 30
0.0
 10
66.1265179393069
 20
41.55900233851804
 30
0.0
 10
66.1292740156951
 20
41.56382547219738
 30
0.0
  0
LWPOLYLINE
  5
4FB
330
1F
100
AcDbEntity
  8
レイヤー 1
 62
     7
370
     9
100
AcDbPolyline
 90
        2
 70
     0
 43
0.0
 10
62.98596889495315
 20
49.75419547883035
 10
62.22735886910112
 20
49.48961214556316
  0
LWPOLYLINE
  5
4FF
330
1F
100
AcDbEntity
  8
レイヤー 1
 62
     7
370
     9
100
AcDbPolyline
 90
        2
 70
     0
 43
0.0
 10
63.1465103445658
 20
49.6639339771168
 10
62.98596889495315
 20
49.75419547883035
  0
LWPOLYLINE
  5
503
330
1F
100
AcDbEntity
  8
レイヤー 1
 62
     7
370
     9
100
AcDbPolyline
 90
        2
 70
     0
 43
0.0
 10
62.96460930294467
 20
49.7562625361215
 10
62.20462123889848
 20
49.49167920285431
  0
SPLINE
  5
507
330
1F
100
AcDbEntity
  8
レイヤー 1
 62
     7
370
     9
100
AcDbSpline
210
0.0
220
0.0
230
1.0
 70
     8
 71
     3
 72
     8
 73
     4
 74
     0
 42
0.000000001
 43
0.0000000001
 40
0.0
 40
0.0
 40
0.0
 40
0.0
 40
1.0
 40
1.0
 40
1.0
 40
1.0
 10
62.98596889495315
 20
49.75419547883035
 30
0.0
 10
62.98114576127381
 20
49.75488449792739
 30
0.0
 10
62.97081047481805
 20
49.75557351702444
 30
0.0
 10
62.96529832204163
 20
49.7562625361215
 30
0.0
  0
LWPOLYLINE
  5
508
330
1F
100
AcDbEntity
  8
レイヤー 1
 62
     7
370
     9
100
AcDbPolyline
 90
        2
 70
     0
 43
0.0
 10
65.66625318247753
 20
41.12698736466771
 10
64.90557609933438
 20
40.86171501230346
  0
LWPOLYLINE
  5
50C
330
1F
100
AcDbEntity
  8
レイヤー 1
 62
     7
370
     9
100
AcDbPolyline
 90
        2
 70
     0
 43
0.0
 10
65.66625318247753
 20
41.12698736466771
 10
65.72757588211499
 20
41.25721197401015
  0
LWPOLYLINE
  5
510
330
1F
100
AcDbEntity
  8
レイヤー 1
 62
     7
370
     9
100
AcDbPolyline
 90
        2
 70
     0
 43
0.0
 10
65.89087340811585
 20
41.31440055906529
 10
65.13157436316675
 20
41.04912820670106
  0
SPLINE
  5
514
330
1F
100
AcDbEntity
  8
レイヤー 1
 62
     7
370
     9
100
AcDbSpline
210
0.0
220
0.0
230
1.0
 70
     8
 71
     3
 72
     8
 73
     4
 74
     0
 42
0.000000001
 43
0.0000000001
 40
0.0
 40
0.0
 40
0.0
 40
0.0
 40
1.0
 40
1.0
 40
1.0
 40
1.0
 10
65.89087340811585
 20
41.31440055906529
 30
0.0
 10
65.89569654179519
 20
41.31784565455055
 30
0.0
 10
65.9046537900569
 20
41.3254248646181
 30
0.0
 10
65.90740986644511
 20
41.3295589792004
 30
0.0
  0
LWPOLYLINE
  5
515
330
1F
100
AcDbEntity
  8
レイヤー 1
 62
     7
370
     9
100
AcDbPolyline
 90
        2
 70
     0
 43
0.0
 10
62.67039814850426
 20
49.7645307652861
 10
61.91109910355527
 20
49.49994743201891
  0
LWPOLYLINE
  5
519
330
1F
100
AcDbEntity
  8
レイヤー 1
 62
     7
370
     9
100
AcDbPolyline
 90
        2
 70
     0
 43
0.0
 10
62.80268981513785
 20
49.69907395106635
 10
62.67039814850426
 20
49.7645307652861
  0
LWPOLYLINE
  5
51D
330
1F
100
AcDbEntity
  8
レイヤー 1
 62
     7
370
     9
100
AcDbPolyline
 90
        2
 70
     0
 43
0.0
 10
62.64903855649578
 20
49.76315272709199
 10
61.88836147335263
 20
49.49856939382481
  0
SPLINE
  5
521
330
1F
100
AcDbEntity
  8
レイヤー 1
 62
     7
370
     9
100
AcDbSpline
210
0.0
220
0.0
230
1.0
 70
     8
 71
     3
 72
     8
 73
     4
 74
     0
 42
0.000000001
 43
0.0000000001
 40
0.0
 40
0.0
 40
0.0
 40
0.0
 40
1.0
 40
1.0
 40
1.0
 40
1.0
 10
62.67039814850426
 20
49.7645307652861
 30
0.0
 10
62.66488599572796
 20
49.7645307652861
 30
0.0
 10
62.65523972836917
 20
49.7645307652861
 30
0.0
 10
62.64903855649578
 20
49.76315272709199
 30
0.0
  0
LWPOLYLINE
  5
522
330
1F
100
AcDbEntity
  8
レイヤー 1
 62
     7
370
     9
100
AcDbPolyline
 90
        2
 70
     0
 43
0.0
 10
65.40649298288969
 20
40.95542160950227
 10
64.64650491884362
 20
40.69083827623507
  0
LWPOLYLINE
  5
526
330
1F
100
AcDbEntity
  8
レイヤー 1
 62
     7
370
     9
100
AcDbPolyline
 90
        2
 70
     0
 43
0.0
 10
65.40649298288969
 20
40.95542160950227
 10
65.45541333878026
 20
41.04568311121581
  0
LWPOLYLINE
  5
52A
330
1F
100
AcDbEntity
  8
レイヤー 1
 62
     7
370
     9
100
AcDbPolyline
 90
        2
 70
     0
 43
0.0
 10
65.64833868595423
 20
41.11251796362966
 10
64.88835062190816
 20
40.84862364945953
  0
SPLINE
  5
52E
330
1F
100
AcDbEntity
  8
レイヤー 1
 62
     7
370
     9
100
AcDbSpline
210
0.0
220
0.0
230
1.0
 70
     8
 71
     3
 72
     8
 73
     4
 74
     0
 42
0.000000001
 43
0.0000000001
 40
0.0
 40
0.0
 40
0.0
 40
0.0
 40
1.0
 40
1.0
 40
1.0
 40
1.0
 10
65.64833868595423
 20
41.11251796362966
 30
0.0
 10
65.65316181963357
 20
41.1159630591149
 30
0.0
 10
65.66211906789528
 20
41.12285325008541
 30
0.0
 10
65.66625318247753
 20
41.12698736466771
 30
0.0
  0
LWPOLYLINE
  5
52F
330
1F
100
AcDbEntity
  8
レイヤー 1
 62
     7
370
     9
100
AcDbPolyline
 90
        2
 70
     0
 43
0.0
 10
62.36102857392888
 20
49.73903705869525
 10
61.60104050988281
 20
49.47445372542806
  0
LWPOLYLINE
  5
533
330
1F
100
AcDbEntity
  8
レイヤー 1
 62
     7
370
     9
100
AcDbPolyline
 90
        2
 70
     0
 43
0.0
 10
62.45749124751586
 20
49.69769591287225
 10
62.3603395548318
 20
49.73903705869525
  0
LWPOLYLINE
  5
537
330
1F
100
AcDbEntity
  8
レイヤー 1
 62
     7
370
     9
100
AcDbPolyline
 90
        2
 70
     0
 43
0.0
 10
62.33897996282332
 20
49.73490294411295
 10
61.57899189877713
 20
49.47100862994282
  0
SPLINE
  5
53B
330
1F
100
AcDbEntity
  8
レイヤー 1
 62
     7
370
     9
100
AcDbSpline
210
0.0
220
0.0
230
1.0
 70
     8
 71
     3
 72
     8
 73
     4
 74
     0
 42
0.000000001
 43
0.0000000001
 40
0.0
 40
0.0
 40
0.0
 40
0.0
 40
1.0
 40
1.0
 40
1.0
 40
1.0
 10
62.36102857392888
 20
49.73903705869525
 30
0.0
 10
62.35482740205538
 20
49.73834803959819
 30
0.0
 10
62.3451811346967
 20
49.73628098230705
 30
0.0
 10
62.33897996282332
 20
49.73490294411295
 30
0.0
  0
LWPOLYLINE
  5
53C
330
1F
100
AcDbEntity
  8
レイヤー 1
 62
     7
370
     9
100
AcDbPolyline
 90
        2
 70
     0
 43
0.0
 10
65.13088534406978
 20
40.81899582828638
 10
64.3708972800236
 20
40.55441249501918
  0
LWPOLYLINE
  5
540
330
1F
100
AcDbEntity
  8
レイヤー 1
 62
     7
370
     9
100
AcDbPolyline
 90
        2
 70
     0
 43
0.0
 10
65.13088534406978
 20
40.81899582828638
 10
65.15913512704884
 20
40.86584912688576
  0
LWPOLYLINE
  5
544
330
1F
100
AcDbEntity
  8
レイヤー 1
 62
     7
370
     9
100
AcDbPolyline
 90
        2
 70
     0
 43
0.0
 10
65.38651142907526
 20
40.94508632304651
 10
64.62790140322323
 20
40.67981397068228
  0
SPLINE
  5
548
330
1F
100
AcDbEntity
  8
レイヤー 1
 62
     7
370
     9
100
AcDbSpline
210
0.0
220
0.0
230
1.0
 70
     8
 71
     3
 72
     8
 73
     4
 74
     0
 42
0.000000001
 43
0.0000000001
 40
0.0
 40
0.0
 40
0.0
 40
0.0
 40
1.0
 40
1.0
 40
1.0
 40
1.0
 10
65.38651142907526
 20
40.94508632304651
 30
0.0
 10
65.39202358185167
 20
40.94715338033767
 30
0.0
 10
65.40166984921035
 20
40.95335455221111
 30
0.0
 10
65.40580396379272
 20
40.95542160950227
 30
0.0
  0
LWPOLYLINE
  5
549
330
1F
100
AcDbEntity
  8
レイヤー 1
 62
     7
370
     9
100
AcDbPolyline
 90
        2
 70
     0
 43
0.0
 10
62.05923820942104
 20
49.67564730176666
 10
61.29993916447194
 20
49.41175298759651
  0
LWPOLYLINE
  5
54D
330
1F
100
AcDbEntity
  8
レイヤー 1
 62
     7
370
     9
100
AcDbPolyline
 90
        2
 70
     0
 43
0.0
 10
62.114359737185
 20
49.6570437861463
 10
62.05923820942104
 20
49.67564730176666
  0
LWPOLYLINE
  5
551
330
1F
100
AcDbEntity
  8
レイヤー 1
 62
     7
370
     9
100
AcDbPolyline
 90
        2
 70
     0
 43
0.0
 10
64.34884866891804
 20
40.54614426585458
 10
64.08219827835973
 20
40.45243766865579
  0
LWPOLYLINE
  5
555
330
1F
100
AcDbEntity
  8
レイヤー 1
 62
     7
370
     9
100
AcDbPolyline
 90
        2
 70
     0
 43
0.0
 10
62.03787861741245
 20
49.6694461298932
 10
61.27926859156042
 20
49.40555181572307
  0
SPLINE
  5
559
330
1F
100
AcDbEntity
  8
レイヤー 1
 62
     7
370
     9
100
AcDbSpline
210
0.0
220
0.0
230
1.0
 70
     8
 71
     3
 72
     8
 73
     4
 74
     0
 42
0.000000001
 43
0.0000000001
 40
0.0
 40
0.0
 40
0.0
 40
0.0
 40
1.0
 40
1.0
 40
1.0
 40
1.0
 10
62.05923820942104
 20
49.67564730176666
 30
0.0
 10
62.05441507574159
 20
49.67495828266961
 30
0.0
 10
62.04339077018886
 20
49.67151318718436
 30
0.0
 10
62.03787861741245
 20
49.6694461298932
 30
0.0
  0
LWPOLYLINE
  5
55A
330
1F
100
AcDbEntity
  8
レイヤー 1
 62
     7
370
     9
100
AcDbPolyline
 90
        2
 70
     0
 43
0.0
 10
61.76916116956289
 20
49.57780658998556
 10
61.0098621246139
 20
49.31253423762132
  0
LWPOLYLINE
  5
55E
330
1F
100
AcDbEntity
  8
レイヤー 1
 62
     7
370
     9
100
AcDbPolyline
 90
        2
 70
     0
 43
0.0
 10
65.11021477115827
 20
40.81072759912178
 10
64.35022670711209
 20
40.54545524675753
  0
SPLINE
  5
562
330
1F
100
AcDbEntity
  8
レイヤー 1
 62
     7
370
     9
100
AcDbSpline
210
0.0
220
0.0
230
1.0
 70
     8
 71
     3
 72
     8
 73
     4
 74
     0
 42
0.000000001
 43
0.0000000001
 40
0.0
 40
0.0
 40
0.0
 40
0.0
 40
1.0
 40
1.0
 40
1.0
 40
1.0
 10
65.11021477115827
 20
40.81072759912178
 30
0.0
 10
65.1150379048376
 20
40.81210563731587
 30
0.0
 10
65.12468417219628
 20
40.81623975189817
 30
0.0
 10
65.1301963249727
 20
40.81899582828638
 30
0.0
  0
LWPOLYLINE
  5
563
330
1F
100
AcDbEntity
  8
レイヤー 1
 62
     7
370
     9
100
AcDbPolyline
 90
        2
 70
     0
 43
0.0
 10
64.00571715858717
 20
40.46690706969383
 10
63.78109693294886
 20
40.38835889263014
  0
LWPOLYLINE
  5
567
330
1F
100
AcDbEntity
  8
レイヤー 1
 62
     7
370
     9
100
AcDbPolyline
 90
        2
 70
     0
 43
0.0
 10
60.96094176872333
 20
49.25810172895437
 10
60.73287644759984
 20
49.17886453279363
  0
LWPOLYLINE
  5
56B
330
1F
100
AcDbEntity
  8
レイヤー 1
 62
     7
370
     9
100
AcDbPolyline
 90
        2
 70
     0
 43
0.0
 10
63.66189662915923
 20
40.42556592387083
 10
63.47103833927639
 20
40.35873107145699
  0
LWPOLYLINE
  5
56F
330
1F
100
AcDbEntity
  8
レイヤー 1
 62
     7
370
     9
100
AcDbPolyline
 90
        2
 70
     0
 43
0.0
 10
60.6646635569918
 20
49.07757872552727
 10
60.47242722891491
 20
49.01074387311344
  0
LWPOLYLINE
  5
573
330
1F
100
AcDbEntity
  8
レイヤー 1
 62
     7
370
     9
100
AcDbPolyline
 90
        2
 70
     0
 43
0.0
 10
60.3918119945601
 20
48.86604986273294
 10
60.22851446855924
 20
48.80955029677484
  0
LWPOLYLINE
  5
577
330
1F
100
AcDbEntity
  8
レイヤー 1
 62
     7
370
     9
100
AcDbPolyline
 90
        2
 70
     0
 43
0.0
 10
63.31738708063421
 20
40.42418788567674
 10
63.15546759282751
 20
40.36768831971864
  0
LWPOLYLINE
  5
57B
330
1F
100
AcDbEntity
  8
レイヤー 1
 62
     7
370
     9
100
AcDbPolyline
 90
        2
 70
     0
 43
0.0
 10
60.14376511962206
 20
48.62489317876545
 10
60.00527228111508
 20
48.57666184197195
  0
LWPOLYLINE
  5
57F
330
1F
100
AcDbEntity
  8
レイヤー 1
 62
     7
370
     9
100
AcDbPolyline
 90
        2
 70
     0
 43
0.0
 10
62.97425557030334
 20
40.46070589782039
 10
62.83714076999041
 20
40.41247456102688
  0
LWPOLYLINE
  5
583
330
1F
100
AcDbEntity
  8
レイヤー 1
 62
     7
370
     9
100
AcDbPolyline
 90
        2
 70
     0
 43
0.0
 10
59.9205229321779
 20
48.35617573091596
 10
59.80338968567941
 20
48.31552360419002
  0
LWPOLYLINE
  5
587
330
1F
100
AcDbEntity
  8
レイヤー 1
 62
     7
370
     9
100
AcDbPolyline
 90
        2
 70
     0
 43
0.0
 10
62.63181307906956
 20
40.53443094120473
 10
62.51536885166803
 20
40.49308979538174
  0
LWPOLYLINE
  5
58B
330
1F
100
AcDbEntity
  8
レイヤー 1
 62
     7
370
     9
100
AcDbPolyline
 90
        2
 70
     0
 43
0.0
 10
59.72415248951864
 20
48.06127555737858
 10
59.6235557013494
 20
48.02682460252608
  0
LWPOLYLINE
  5
58F
330
1F
100
AcDbEntity
  8
レイヤー 1
 62
     7
370
     9
100
AcDbPolyline
 90
        2
 70
     0
 43
0.0
 10
62.29350470241792
 20
40.64467399673273
 10
62.19635300973397
 20
40.61022304188023
  0
LWPOLYLINE
  5
593
330
1F
100
AcDbEntity
  8
レイヤー 1
 62
     7
370
     9
100
AcDbPolyline
 90
        2
 70
     0
 43
0.0
 10
59.77651794089439
 20
47.82011887341109
 10
59.4705934618043
 20
47.7126318942713
  0
LWPOLYLINE
  5
597
330
1F
100
AcDbEntity
  8
レイヤー 1
 62
     7
370
     9
100
AcDbPolyline
 90
        2
 70
     0
 43
0.0
 10
61.96277553583394
 20
40.79143506440437
 10
61.87940422509092
 20
40.76249626232827
  0
LWPOLYLINE
  5
59B
330
1F
100
AcDbEntity
  8
レイヤー 1
 62
     7
370
     9
100
AcDbPolyline
 90
        2
 70
     0
 43
0.0
 10
59.41202683855505
 20
47.40119526240471
 10
59.34105787155892
 20
47.37639057491091
  0
LWPOLYLINE
  5
59F
330
1F
100
AcDbEntity
  8
レイヤー 1
 62
     7
370
     9
100
AcDbPolyline
 90
        2
 70
     0
 43
0.0
 10
61.64031459841459
 20
40.97195806783147
 10
61.57072366961251
 20
40.94715338033767
  0
LWPOLYLINE
  5
5A3
330
1F
100
AcDbEntity
  8
レイヤー 1
 62
     7
370
     9
100
AcDbPolyline
 90
        7
 70
     0
 43
0.0
 10
62.41063794891642
 20
46.86169330941459
 10
61.83117288829743
 20
46.86513840489984
 10
61.33094502383921
 20
46.59297586156509
 10
60.97954528434371
 20
46.08585780613632
 10
60.82313794931332
 20
45.41061909102736
 10
60.88308261075673
 20
44.65821023704879
 10
60.97127705517909
 20
44.34608458608515
  0
LWPOLYLINE
  5
5AC
330
1F
100
AcDbEntity
  8
レイヤー 1
 62
     7
370
     9
100
AcDbPolyline
 90
       10
 70
     0
 43
0.0
 10
62.34931524927907
 20
42.84609001180738
 10
62.73792202001522
 20
42.78407829307288
 10
63.28707024036402
 20
42.91981505519172
 10
63.72046325240848
 20
43.31600103599546
 10
63.97953443289924
 20
43.91751470772007
 10
64.02845478878982
 20
44.64442985510779
 10
63.8610231482067
 20
45.39752772818341
 10
63.49859910315837
 20
46.07552251968058
 10
62.99354810502069
 20
46.5860856705946
 10
62.41063794891642
 20
46.86169330941459
  0
SPLINE
  5
5B8
330
1F
100
AcDbEntity
  8
レイヤー 1
 62
     7
370
     9
100
AcDbSpline
210
0.0
220
0.0
230
1.0
 70
     8
 71
     3
 72
    11
 73
     7
 74
     0
 42
0.000000001
 43
0.0000000001
 40
0.0
 40
0.0
 40
0.0
 40
0.0
 40
1.0
 40
1.0
 40
1.0
 40
2.0
 40
2.0
 40
2.0
 40
2.0
 10
62.41063794891642
 20
46.86169330941459
 30
0.0
 10
62.62354484990493
 20
46.82104118268863
 30
0.0
 10
62.83714076999041
 20
46.78038905596269
 30
0.0
 10
63.07278530118145
 20
46.75351731117775
 30
0.0
 10
63.15960170740976
 20
46.74387104381904
 30
0.0
 10
63.25055222822033
 20
46.73629183375149
 30
0.0
 10
63.34150274903101
 20
46.72802360458689
 30
0.0
  0
SPLINE
  5
5B9
330
1F
100
AcDbEntity
  8
レイヤー 1
 62
     7
370
     9
100
AcDbSpline
210
0.0
220
0.0
230
1.0
 70
     8
 71
     3
 72
     8
 73
     4
 74
     0
 42
0.000000001
 43
0.0000000001
 40
0.0
 40
0.0
 40
0.0
 40
0.0
 40
1.0
 40
1.0
 40
1.0
 40
1.0
 10
62.25009649930388
 20
42.77305398752007
 30
0.0
 10
62.53879550096775
 20
42.60493332783989
 30
0.0
 10
63.03833434632901
 20
42.56152512472573
 30
0.0
 10
63.35114901638968
 20
42.67865837122423
 30
0.0
  0
SPLINE
  5
5BA
330
1F
100
AcDbEntity
  8
レイヤー 1
 62
     7
370
     9
100
AcDbSpline
210
0.0
220
0.0
230
1.0
 70
     8
 71
     3
 72
     8
 73
     4
 74
     0
 42
0.000000001
 43
0.0000000001
 40
0.0
 40
0.0
 40
0.0
 40
0.0
 40
1.0
 40
1.0
 40
1.0
 40
1.0
 10
61.78294155150394
 20
47.10147195518798
 30
0.0
 10
60.84243048403079
 20
46.54818962025685
 30
0.0
 10
60.47656134349717
 20
45.31622347473152
 30
0.0
 10
60.96369784511154
 20
44.3398834142117
 30
0.0
  0
SPLINE
  5
5BB
330
1F
100
AcDbEntity
  8
レイヤー 1
 62
     7
370
     9
100
AcDbSpline
210
0.0
220
0.0
230
1.0
 70
     8
 71
     3
 72
    11
 73
     7
 74
     0
 42
0.000000001
 43
0.0000000001
 40
0.0
 40
0.0
 40
0.0
 40
0.0
 40
1.0
 40
1.0
 40
1.0
 40
2.0
 40
2.0
 40
2.0
 40
2.0
 10
61.78294155150394
 20
47.10147195518798
 30
0.0
 10
61.92625752369037
 20
47.02774691180363
 30
0.0
 10
62.07026251497376
 20
46.95608892571043
 30
0.0
 10
62.27214511040944
 20
46.89821132155824
 30
0.0
 10
62.31693135171764
 20
46.88580897781134
 30
0.0
 10
62.36309563122001
 20
46.87478467225853
 30
0.0
 10
62.4113269680135
 20
46.86169330941459
 30
0.0
  0
LWPOLYLINE
  5
5BC
330
1F
100
AcDbEntity
  8
レイヤー 1
 62
     7
370
     9
100
AcDbPolyline
 90
       15
 70
     0
 43
0.0
 10
62.72827575265654
 20
43.12720980340376
 10
62.95289597829475
 20
43.16166075825626
 10
63.38422193304808
 20
43.4227989960382
 10
63.67085387742083
 20
43.90097824939087
 10
63.76869458920197
 20
44.52109543673585
 10
63.66051859096507
 20
45.18875494177726
 10
63.36492939833062
 20
45.80473801453994
 10
62.92809129080098
 20
46.27396001963096
 10
62.41408304440171
 20
46.52476297095716
 10
61.90145283619648
 20
46.51925081818075
 10
61.46943786234618
 20
46.25742356130176
 10
61.18211689887636
 20
45.78200038433728
 10
61.08634324438646
 20
45.16188319699232
 10
61.1931412044292
 20
44.4928456537568
 10
61.19589728081741
 20
44.48595546278629
  0
LWPOLYLINE
  5
5D6
330
1F
100
AcDbEntity
  8
レイヤー 1
 62
     7
370
     9
100
AcDbPolyline
 90
        9
 70
     0
 43
0.0
 10
65.58288187173449
 20
104.8721808107966
 10
66.05830504869894
 20
104.9142109757166
 10
66.55095370308973
 20
104.9107658802313
 10
67.01121845991909
 20
104.863912581632
 10
67.39569111607298
 20
104.7770961754036
 10
67.66440856392242
 20
104.6585848907111
 10
67.7911880777796
 20
104.5207810713011
 10
67.76293829480053
 20
104.3788431373088
 10
67.58310431047053
 20
104.243795394287
  0
SPLINE
  5
5E1
330
1F
100
AcDbEntity
  8
レイヤー 1
 62
     7
370
     9
100
AcDbSpline
210
0.0
220
0.0
230
1.0
 70
     8
 71
     3
 72
     8
 73
     4
 74
     0
 42
0.000000001
 43
0.0000000001
 40
0.0
 40
0.0
 40
0.0
 40
0.0
 40
1.0
 40
1.0
 40
1.0
 40
1.0
 10
65.58288187173449
 20
104.8721808107966
 30
0.0
 10
65.57530266166694
 20
104.7729620608214
 30
0.0
 10
65.55601012694959
 20
104.5765916181621
 30
0.0
 10
65.54705287868788
 20
104.4773728681869
 30
0.0
  0
LWPOLYLINE
  5
5E2
330
1F
100
AcDbEntity
  8
レイヤー 1
 62
     7
370
     9
100
AcDbPolyline
 90
        9
 70
     0
 43
0.0
 10
66.88650600335305
 20
104.0570712189864
 10
66.4110828263886
 20
104.0150410540664
 10
65.91981221019196
 20
104.0177971304546
 10
65.45816941516844
 20
104.065339448151
 10
65.07369675901455
 20
104.1514668352823
 10
64.80497931116511
 20
104.2699781199749
 10
64.67957783550199
 20
104.4070929202878
 10
64.70713859938397
 20
104.5504088924742
 10
64.886283564617
 20
104.6840785973019
  0
LWPOLYLINE
  5
5F0
330
1F
100
AcDbEntity
  8
レイヤー 1
 62
     7
370
     9
100
AcDbPolyline
 90
        2
 70
     0
 43
0.0
 10
64.886283564617
 20
104.6840785973019
 10
66.88650600335305
 20
104.0570712189864
  0
LWPOLYLINE
  5
5F4
330
1F
100
AcDbEntity
  8
レイヤー 1
 62
     7
370
     9
100
AcDbPolyline
 90
        2
 70
     0
 43
0.0
 10
67.58310431047053
 20
104.243795394287
 10
65.58288187173449
 20
104.8721808107966
  0
LWPOLYLINE
  5
5FC
330
1F
100
AcDbEntity
  8
レイヤー 1
 62
     7
370
     9
100
AcDbPolyline
 90
       16
 70
     0
 43
0.0
 10
18.7536989407335
 20
15.9543636730442
 10
20.19926100634433
 20
15.59951883806346
 10
21.77160258581233
 20
15.19506462809512
 10
23.43627272428506
 20
14.74926927230381
 10
25.15055223774533
 20
14.27522413353343
 10
26.87861213314665
 20
13.78188646004564
 10
28.57566616918081
 20
13.28234761468443
 10
30.2051963337039
 20
12.78763190300255
 10
31.72655049999031
 20
12.30807461145577
 10
33.10665575138131
 20
11.85607808379099
 10
34.30968309483063
 20
11.44335564465806
 10
35.31082784284416
 20
11.07748650412452
 10
36.08390726973431
 20
10.76811692954909
 10
36.61445197446272
 20
10.52282613099931
 10
36.88661451779745
 20
10.34781528034861
 10
36.92313252994114
 20
10.27477925606131
  0
SPLINE
  5
60E
330
1F
100
AcDbEntity
  8
レイヤー 1
 62
     7
370
     9
100
AcDbSpline
210
0.0
220
0.0
230
1.0
 70
     8
 71
     3
 72
     8
 73
     4
 74
     0
 42
0.000000001
 43
0.0000000001
 40
0.0
 40
0.0
 40
0.0
 40
0.0
 40
1.0
 40
1.0
 40
1.0
 40
1.0
 10
18.7536989407335
 20
15.9543636730442
 30
0.0
 10
17.64300015628891
 20
16.37811041772993
 30
0.0
 10
15.54493700577183
 20
16.7322662336136
 30
0.0
 10
14.35637906336063
 20
16.69574822146996
 30
0.0
  0
LWPOLYLINE
  5
60F
330
1F
100
AcDbEntity
  8
レイヤー 1
 62
     7
370
     9
100
AcDbPolyline
 90
       22
 70
     0
 43
0.0
 10
14.4652440806945
 20
16.50695698887827
 10
14.46662211888855
 20
16.47319505312282
 10
14.65403531328622
 20
16.31954379448068
 10
15.107409879145
 20
16.09354553064829
 10
15.8219226827859
 20
15.79933437620795
 10
16.77483609400593
 20
15.44380052213018
 10
17.94754659718507
 20
15.03590121667659
 10
19.30629225656759
 20
14.5880388035941
 10
20.82144525098039
 20
14.10779249295028
 10
22.45442051098888
 20
13.6089426666861
 10
24.16318787167273
 20
13.10251363035438
 10
25.90847324450039
 20
12.6022857658961
 10
27.64617940726038
 20
12.12066141705817
 10
29.33289815683867
 20
11.6686648893934
 10
30.92728834741234
 20
11.25732048845457
 10
32.39145392864344
 20
10.89696350069744
 10
33.68818786929154
 20
10.5972401934807
 10
34.78441725269801
 20
10.36504075777486
 10
35.65533739136919
 20
10.20587734635632
 10
36.27958869329649
 20
10.12250603561327
 10
36.63925666195649
 20
10.11906094012802
 10
36.73158522096122
 20
10.17487148698906
  0
LWPOLYLINE
  5
627
330
1F
100
AcDbEntity
  8
レイヤー 1
 62
     7
370
     9
100
AcDbPolyline
 90
       23
 70
     0
 43
0.0
 10
37.26488600207796
 20
11.47642856131645
 10
37.26626404027201
 20
11.48883090506335
 10
37.12570414447379
 20
11.62939080086154
 10
36.72331699179659
 20
11.84023064455884
 10
36.07012688779326
 20
12.11790534066998
 10
35.17922519530765
 20
12.45690273641856
 10
34.07334954454251
 20
12.8461985262518
 10
32.77799364208846
 20
13.28028055739327
 10
31.32347432821604
 20
13.7467464860961
 10
29.74355353868049
 20
14.23457200680747
 10
28.07612732381955
 20
14.7341108521687
 10
26.35840271487399
 20
15.23227165933582
 10
24.63172085766672
 20
15.71803012275606
 10
22.93604485982672
 20
16.17829487958544
 10
21.31409390537118
 20
16.60479770065936
 10
19.80031894915243
 20
16.98582526132799
 10
18.4326160415082
 20
17.31310933242673
 10
17.23992398451475
 20
17.57907070388802
 10
16.25255961844215
 20
17.77681918474136
 10
15.49326057349305
 20
17.90222066040445
 10
14.98063036528782
 20
17.95183003539205
 10
14.72569329937932
 20
17.92564730970415
 10
14.6995105736915
 20
17.89670850762805
  0
LWPOLYLINE
  5
640
330
1F
100
AcDbEntity
  8
レイヤー 1
 62
     7
370
     9
100
AcDbPolyline
 90
       23
 70
     0
 43
0.0
 10
14.90828336009764
 20
17.95320807358615
 10
14.89381395905951
 20
17.9759457037888
 10
14.98200840348198
 20
18.0517378044643
 10
15.34305441033615
 20
18.04829270897905
 10
15.96592767406929
 20
17.96561041733305
 10
16.83684781274047
 20
17.80644700591451
 10
17.93376621524402
 20
17.57424757020867
 10
19.23118917498908
 20
17.27383524389488
 10
20.69328769892917
 20
16.9141672752348
 10
22.28905592769689
 20
16.50282287429597
 10
23.97646369637226
 20
16.05082634663118
 10
25.71279182093809
 20
15.56920199779326
 10
27.45738817466867
 20
15.06828511423794
 10
29.16753357354668
 20
14.5632341161003
 10
30.80050883355506
 20
14.06369527073909
 10
32.31497280887089
 20
13.58344896009525
 10
33.67509650644757
 20
13.13489752791573
 10
34.84573995233546
 20
12.7276872415592
 10
35.80003140174966
 20
12.37353142567551
 10
36.5131661671964
 20
12.07794223304107
 10
36.96998582854047
 20
11.85125495011164
 10
37.15326490835577
 20
11.6989817296636
 10
37.1580880420351
 20
11.68589036681965
  0
LWPOLYLINE
  5
659
330
1F
100
AcDbEntity
  8
レイヤー 1
 62
     7
370
     9
100
AcDbPolyline
 90
       34
 70
     0
 43
0.0
 10
20.9144628290822
 20
15.01385260557099
 10
22.14987407009272
 20
14.70792812648081
 10
23.51068678676648
 20
14.35377231059712
 10
24.9445355277274
 20
13.96172044437569
 10
26.40318895618219
 20
13.54624192885456
 10
27.83359260165793
 20
13.12456224145998
 10
29.18269199368177
 20
12.70977274503589
 10
30.40087775726607
 20
12.31772087881447
 10
31.44818678478208
 20
11.96287604383373
 10
32.28052185401845
 20
11.65695156474355
 10
32.8730782774814
 20
11.41166076619376
 10
33.2031184249683
 20
11.23527187734896
 10
33.25823995273237
 20
11.13674214647082
 10
33.03568678438518
 20
11.11538255446227
 10
32.54510518728563
 20
11.17601623500266
 10
31.80234260066578
 20
11.31382005441266
 10
30.83633782660166
 20
11.52465989810996
 10
29.68085280084887
 20
11.80164557512404
 10
28.37722866923042
 20
12.13168572261097
 10
26.97231873034553
 20
12.5072011305032
 10
25.51986647376413
 20
12.91303337866563
 10
24.06879225537688
 20
13.33264600876907
 10
22.6728395647537
 20
13.75294765796954
 10
21.38368483417315
 20
14.15877990613198
 10
20.24542528584669
 20
14.53429531402421
 10
19.30146912288825
 20
14.86571349970525
 10
18.5855782810533
 20
15.14338819581639
 10
18.12255744783573
 20
15.35353902041662
 10
17.9282540624676
 20
15.49272087802072
 10
18.0123143923077
 20
15.55335455856111
 10
18.37198236096782
 20
15.53337300474666
 10
18.9907215101187
 20
15.43346523567442
 10
19.84855028594592
 20
15.25914340412078
 10
20.9144628290822
 20
15.01385260557099
  0
SPLINE
  5
67D
330
1F
100
AcDbEntity
  8
レイヤー 1
 62
     7
370
     9
100
AcDbSpline
210
0.0
220
0.0
230
1.0
 70
     8
 71
     3
 72
     8
 73
     4
 74
     0
 42
0.000000001
 43
0.0000000001
 40
0.0
 40
0.0
 40
0.0
 40
0.0
 40
1.0
 40
1.0
 40
1.0
 40
1.0
 10
18.23831265614007
 20
15.50581224086467
 30
0.0
 10
21.92043071077518
 20
13.88937343918545
 30
0.0
 10
29.09725362564762
 20
11.86090121747034
 30
0.0
 10
33.08047302569349
 20
11.30968593983036
 30
0.0
  0
LWPOLYLINE
  5
67E
330
1F
100
AcDbEntity
  8
レイヤー 1
 62
     7
370
     9
100
AcDbPolyline
 90
       18
 70
     0
 43
0.0
 10
34.96494025612509
 20
12.69943745858015
 10
33.80876621127521
 20
13.10182461125733
 10
32.47138014390129
 20
13.54417487156341
 10
30.98103183698225
 20
14.01684197213969
 10
29.37561734085574
 20
14.51017964562746
 10
27.69165466766566
 20
15.00902947189164
 10
25.96841790594368
 20
15.50581224086467
 10
24.2451811442217
 20
15.98536953241144
 10
22.56604160471096
 20
16.43874409827032
 10
20.96682828045795
 20
16.8549116328885
 10
19.48681525999467
 20
17.22284783071318
 10
18.15976447907639
 20
17.53497348167681
 10
17.01599277797351
 20
17.78508741390596
 10
16.08306092056779
 20
17.964921398236
 10
15.38508457525614
 20
18.07240837737579
 10
14.93515510488254
 20
18.10341423674305
 10
14.74636387229083
 20
18.05793897633775
 10
14.80630853373424
 20
17.94631788261565
  0
LWPOLYLINE
  5
692
330
1F
100
AcDbEntity
  8
レイヤー 1
 62
     7
370
     9
100
AcDbPolyline
 90
        7
 70
     0
 43
0.0
 10
37.19942918785813
 20
11.57564731129165
 10
37.24145935277824
 20
11.58391554045625
 10
37.2993369569304
 20
11.66728685119929
 10
37.09263122781539
 20
11.82576124352079
 10
36.62547628001556
 20
12.05313754554727
 10
35.91096347637466
 20
12.34665968089057
 10
34.96494025612509
 20
12.69943745858015
  0
LWPOLYLINE
  5
69B
330
1F
100
AcDbEntity
  8
レイヤー 1
 62
     7
370
     9
100
AcDbPolyline
 90
       22
 70
     0
 43
0.0
 10
60.38905591817189
 20
92.75243223023358
 10
60.28639207271141
 20
92.8799007631878
 10
59.91983391308082
 20
93.08316139681756
 10
59.29144849657126
 20
93.35532394015229
 10
58.41915031970603
 20
93.68880918312448
 10
57.3249879935907
 20
94.07948301115181
 10
56.03307718662194
 20
94.5135650422933
 10
54.57442375816714
 20
94.9827870473843
 10
52.98485670127292
 20
95.47474668267799
 10
51.30433912356801
 20
95.97979768081561
 10
49.56870001809915
 20
96.4827816216621
 10
47.82203660707745
 20
96.97474125695578
 10
46.10775709361718
 20
97.44189620475564
 10
44.46513556625001
 20
97.87391117860597
 10
42.93206807531391
 20
98.26045089205101
 10
41.54782870934054
 20
98.58980202044089
 10
40.34480136589121
 20
98.85920848738743
 10
39.35261386613928
 20
99.05902402553193
 10
38.59331482119029
 20
99.18166942480681
 10
38.08619676576149
 20
99.22921174250325
 10
37.84228400540582
 20
99.19820588313601
 10
37.8216134324943
 20
99.17271217654516
  0
SPLINE
  5
6B3
330
1F
100
AcDbEntity
  8
レイヤー 1
 62
     7
370
     9
100
AcDbSpline
210
0.0
220
0.0
230
1.0
 70
     8
 71
     3
 72
     8
 73
     4
 74
     0
 42
0.000000001
 43
0.0000000001
 40
0.0
 40
0.0
 40
0.0
 40
0.0
 40
1.0
 40
1.0
 40
1.0
 40
1.0
 10
54.50758890575338
 20
72.0797922614434
 30
0.0
 10
54.72325188312999
 20
72.44841747836512
 30
0.0
 10
54.92513447856567
 20
73.1608632247148
 30
0.0
 10
54.93684780321547
 20
73.58667702669166
 30
0.0
  0
SPLINE
  5
6B4
330
1F
100
AcDbEntity
  8
レイヤー 1
 62
     7
370
     9
100
AcDbSpline
210
0.0
220
0.0
230
1.0
 70
     8
 71
     3
 72
     8
 73
     4
 74
     0
 42
0.000000001
 43
0.0000000001
 40
0.0
 40
0.0
 40
0.0
 40
0.0
 40
1.0
 40
1.0
 40
1.0
 40
1.0
 10
54.38907762106072
 20
71.66086865043701
 30
0.0
 10
54.91548821120688
 20
72.30096739159643
 30
0.0
 10
55.26550991250832
 20
73.53155549892767
 30
0.0
 10
55.15457783788321
 20
74.35355528170828
 30
0.0
  0
LWPOLYLINE
  5
6B5
330
1F
100
AcDbEntity
  8
レイヤー 1
 62
     7
370
     9
100
AcDbPolyline
 90
        9
 70
     0
 43
0.0
 10
66.60400817356259
 20
78.14522737277426
 10
66.4834298315788
 20
79.23594460340436
 10
66.1471885122184
 20
80.30736929931706
 10
65.62077792207225
 20
81.28508739803095
 10
64.93589293960457
 20
82.10157502803517
 10
64.14214293980302
 20
82.7017106615657
 10
63.29327141223752
 20
83.04484217189659
 10
62.44577792286606
 20
83.10754290972812
 10
61.90972106536111
 20
82.98903162503552
  0
SPLINE
  5
6C0
330
1F
100
AcDbEntity
  8
レイヤー 1
 62
     7
370
     9
100
AcDbSpline
210
0.0
220
0.0
230
1.0
 70
     8
 71
     3
 72
     8
 73
     4
 74
     0
 42
0.000000001
 43
0.0000000001
 40
0.0
 40
0.0
 40
0.0
 40
0.0
 40
1.0
 40
1.0
 40
1.0
 40
1.0
 10
64.74090053513947
 20
74.86618548991348
 30
0.0
 10
65.96253139420907
 20
75.37674864082749
 30
0.0
 10
66.79073234886306
 20
76.83333501199112
 30
0.0
 10
66.60469719265967
 20
78.1445383536772
 30
0.0
  0
SPLINE
  5
6C1
330
1F
100
AcDbEntity
  8
レイヤー 1
 62
     7
370
     9
100
AcDbSpline
210
0.0
220
0.0
230
1.0
 70
     8
 71
     3
 72
     8
 73
     4
 74
     0
 42
0.000000001
 43
0.0000000001
 40
0.0
 40
0.0
 40
0.0
 40
0.0
 40
1.0
 40
1.0
 40
1.0
 40
1.0
 10
33.40086690582172
 20
111.9988026681303
 30
0.0
 10
47.03242072185827
 20
106.5445274958828
 30
0.0
 10
77.84742179922392
 20
99.17615727203042
 30
0.0
 10
98.63443893812445
 20
96.40078834911316
 30
0.0
  0
SPLINE
  5
6C2
330
1F
100
AcDbEntity
  8
レイヤー 1
 62
     7
370
     9
100
AcDbSpline
210
0.0
220
0.0
230
1.0
 70
     8
 71
     3
 72
     8
 73
     4
 74
     0
 42
0.000000001
 43
0.0000000001
 40
0.0
 40
0.0
 40
0.0
 40
0.0
 40
1.0
 40
1.0
 40
1.0
 40
1.0
 10
98.63443893812445
 20
96.40078834911316
 30
0.0
 10
98.5848295631369
 20
96.36013622238721
 30
0.0
 10
98.55106762738131
 20
96.27607589254711
 30
0.0
 10
98.56002487564291
 20
96.2126861356185
 30
0.0
  0
SPLINE
  5
6C3
330
1F
100
AcDbEntity
  8
レイヤー 1
 62
     7
370
     9
100
AcDbSpline
210
0.0
220
0.0
230
1.0
 70
     8
 71
     3
 72
     8
 73
     4
 74
     0
 42
0.000000001
 43
0.0000000001
 40
0.0
 40
0.0
 40
0.0
 40
0.0
 40
1.0
 40
1.0
 40
1.0
 40
1.0
 10
33.40086690582172
 20
111.9988026681303
 30
0.0
 10
33.3292089197285
 20
111.9753760188306
 30
0.0
 10
33.27615444925567
 20
111.8961388226699
 30
0.0
 10
33.28235562112906
 20
111.8203467219944
 30
0.0
  0
SPLINE
  5
6C4
330
1F
100
AcDbEntity
  8
レイヤー 1
 62
     7
370
     9
100
AcDbSpline
210
0.0
220
0.0
230
1.0
 70
     8
 71
     3
 72
    14
 73
    10
 74
     0
 42
0.000000001
 43
0.0000000001
 40
0.0
 40
0.0
 40
0.0
 40
0.0
 40
1.0
 40
1.0
 40
1.0
 40
2.0
 40
2.0
 40
2.0
 40
3.0
 40
3.0
 40
3.0
 40
3.0
 10
63.39386820040676
 20
83.07998214584612
 30
0.0
 10
63.38284389485392
 20
83.08273822223433
 30
0.0
 10
63.37044155110704
 20
83.08549429862254
 30
0.0
 10
63.35941724555431
 20
83.08825037501072
 30
0.0
 10
62.99285908592373
 20
83.17299972394787
 30
0.0
 10
62.60700839157568
 20
83.22260909893546
 30
0.0
 10
62.28179137776812
 20
83.10271977604879
 30
0.0
 10
62.19773104792802
 20
83.06964685939039
 30
0.0
 10
62.11504875628208
 20
83.02623865627623
 30
0.0
 10
62.03374450283019
 20
82.98283045316208
 30
0.0
  0
SPLINE
  5
6C5
330
1F
100
AcDbEntity
  8
レイヤー 1
 62
     7
370
     9
100
AcDbSpline
210
0.0
220
0.0
230
1.0
 70
     8
 71
     3
 72
    32
 73
    28
 74
     0
 42
0.000000001
 43
0.0000000001
 40
0.0
 40
0.0
 40
0.0
 40
0.0
 40
1.0
 40
1.0
 40
1.0
 40
2.0
 40
2.0
 40
2.0
 40
3.0
 40
3.0
 40
3.0
 40
4.0
 40
4.0
 40
4.0
 40
5.0
 40
5.0
 40
5.0
 40
6.0
 40
6.0
 40
6.0
 40
7.0
 40
7.0
 40
7.0
 40
8.0
 40
8.0
 40
8.0
 40
9.0
 40
9.0
 40
9.0
 40
9.0
 10
64.844942418794
 20
74.91441682670697
 30
0.0
 10
64.86147887712315
 20
74.91579486490107
 30
0.0
 10
64.87939337364645
 20
74.91855094128925
 30
0.0
 10
64.8959298319757
 20
74.92061799858041
 30
0.0
 10
65.24595153327704
 20
74.97436148815032
 30
0.0
 10
65.53809563042631
 20
75.2279205158647
 30
0.0
 10
65.7930326963347
 20
75.5145524602375
 30
0.0
 10
66.04796976224321
 20
75.80187342370732
 30
0.0
 10
66.26569979691106
 20
76.12226730383554
 30
0.0
 10
66.42279615103843
 20
76.49847173082483
 30
0.0
 10
66.58195956245692
 20
76.87536517691117
 30
0.0
 10
66.68186733152919
 20
77.3073801507615
 30
0.0
 10
66.71631828638175
 20
77.76006569752332
 30
0.0
 10
66.75145826033128
 20
78.2120622251881
 30
0.0
 10
66.7238974964493
 20
78.68541834486143
 30
0.0
 10
66.63501403292986
 20
79.15532936904953
 30
0.0
 10
66.54475253121626
 20
79.62592941233464
 30
0.0
 10
66.39247931076824
 20
80.09239534103747
 30
0.0
 10
66.18921867713851
 20
80.52854442947009
 30
0.0
 10
65.9852690244117
 20
80.96400449880568
 30
0.0
 10
65.72757588211499
 20
81.3670806705799
 30
0.0
 10
65.43129767038357
 20
81.72537060104588
 30
0.0
 10
65.13639749684609
 20
82.08228249331776
 30
0.0
 10
64.80222323477693
 20
82.3916520678932
 30
0.0
 10
64.45082349528144
 20
82.6107601407551
 30
0.0
 10
64.1097590422417
 20
82.82297802264648
 30
0.0
 10
63.75215813087271
 20
82.95182459379484
 30
0.0
 10
63.39386820040676
 20
83.07998214584612
 30
0.0
  0
SPLINE
  5
6C6
330
1F
100
AcDbEntity
  8
レイヤー 1
 62
     7
370
     9
100
AcDbSpline
210
0.0
220
0.0
230
1.0
 70
     8
 71
     3
 72
     8
 73
     4
 74
     0
 42
0.000000001
 43
0.0000000001
 40
0.0
 40
0.0
 40
0.0
 40
0.0
 40
1.0
 40
1.0
 40
1.0
 40
1.0
 10
41.76831482039648
 20
27.30181918236011
 30
0.0
 10
54.26574320268884
 20
23.01956549419457
 30
0.0
 10
81.59361862988459
 20
16.8328630217829
 30
0.0
 10
99.20839184596701
 20
14.29796176373607
 30
0.0
  0
LWPOLYLINE
  5
6C7
330
1F
100
AcDbEntity
  8
レイヤー 1
 62
     7
370
     9
100
AcDbPolyline
 90
        2
 70
     0
 43
0.0
 10
35.63466681845767
 20
112.862832615831
 10
33.40086690582172
 20
111.9988026681303
  0
LWPOLYLINE
  5
6CB
330
1F
100
AcDbEntity
  8
レイヤー 1
 62
     7
370
     9
100
AcDbPolyline
 90
        2
 70
     0
 43
0.0
 10
100.9605674097651
 20
97.24483674299935
 10
67.82977314721444
 20
105.1658002826858
  0
LWPOLYLINE
  5
6CF
330
1F
100
AcDbEntity
  8
レイヤー 1
 62
     7
370
     9
100
AcDbPolyline
 90
        2
 70
     0
 43
0.0
 10
67.82977314721444
 20
105.1658002826858
 10
35.63466681845767
 20
112.862832615831
  0
LWPOLYLINE
  5
6D3
330
1F
100
AcDbEntity
  8
レイヤー 1
 62
     7
370
     9
100
AcDbPolyline
 90
        2
 70
     0
 43
0.0
 10
98.63443893812445
 20
96.40078834911316
 10
100.9605674097651
 20
97.24483674299935
  0
SPLINE
  5
6D7
330
1F
100
AcDbEntity
  8
レイヤー 1
 62
     7
370
     9
100
AcDbSpline
210
0.0
220
0.0
230
1.0
 70
     8
 71
     3
 72
     8
 73
     4
 74
     0
 42
0.000000001
 43
0.0000000001
 40
0.0
 40
0.0
 40
0.0
 40
0.0
 40
1.0
 40
1.0
 40
1.0
 40
1.0
 10
98.75363924191396
 20
96.22302142207425
 30
0.0
 10
98.7584623755933
 20
96.29881352274975
 30
0.0
 10
98.7047188860235
 20
96.37805071891049
 30
0.0
 10
98.63443893812445
 20
96.40078834911316
 30
0.0
  0
SPLINE
  5
6D8
330
1F
100
AcDbEntity
  8
レイヤー 1
 62
     7
370
     9
100
AcDbSpline
210
0.0
220
0.0
230
1.0
 70
     8
 71
     3
 72
     8
 73
     4
 74
     0
 42
0.000000001
 43
0.0000000001
 40
0.0
 40
0.0
 40
0.0
 40
0.0
 40
1.0
 40
1.0
 40
1.0
 40
1.0
 10
98.55933585654606
 20
96.2126861356185
 30
0.0
 10
98.61101228882461
 20
96.20097281096866
 30
0.0
 10
98.70334084782934
 20
96.20648496374505
 30
0.0
 10
98.7529502228171
 20
96.22302142207425
 30
0.0
  0
LWPOLYLINE
  5
6D9
330
1F
100
AcDbEntity
  8
レイヤー 1
 62
     7
370
     9
100
AcDbPolyline
 90
        2
 70
     0
 43
0.0
 10
98.75363924191396
 20
96.22302142207425
 10
99.40200621223806
 20
14.30898606928888
  0
SPLINE
  5
6DD
330
1F
100
AcDbEntity
  8
レイヤー 1
 62
     7
370
     9
100
AcDbSpline
210
0.0
220
0.0
230
1.0
 70
     8
 71
     3
 72
     8
 73
     4
 74
     0
 42
0.000000001
 43
0.0000000001
 40
0.0
 40
0.0
 40
0.0
 40
0.0
 40
1.0
 40
1.0
 40
1.0
 40
1.0
 10
99.20839184596701
 20
14.29796176373607
 30
0.0
 10
99.2600682782458
 20
14.28693745818327
 30
0.0
 10
99.35101879905636
 20
14.29244961095968
 30
0.0
 10
99.40200621223806
 20
14.30898606928888
 30
0.0
  0
SPLINE
  5
6DE
330
1F
100
AcDbEntity
  8
レイヤー 1
 62
     7
370
     9
100
AcDbSpline
210
0.0
220
0.0
230
1.0
 70
     8
 71
     3
 72
     8
 73
     4
 74
     0
 42
0.000000001
 43
0.0000000001
 40
0.0
 40
0.0
 40
0.0
 40
0.0
 40
1.0
 40
1.0
 40
1.0
 40
1.0
 10
101.0797677135546
 20
97.06569177776638
 30
0.0
 10
101.0797677135546
 20
97.14837406941237
 30
0.0
 10
101.0260242239848
 20
97.22692224647605
 30
0.0
 10
100.9605674097651
 20
97.24483674299935
 30
0.0
  0
LWPOLYLINE
  5
6DF
330
1F
100
AcDbEntity
  8
レイヤー 1
 62
     7
370
     9
100
AcDbPolyline
 90
        2
 70
     0
 43
0.0
 10
101.0797677135546
 20
97.06569177776638
 10
101.7295127220729
 20
15.03314514028838
  0
LWPOLYLINE
  5
6E3
330
1F
100
AcDbEntity
  8
レイヤー 1
 62
     7
370
     9
100
AcDbPolyline
 90
        2
 70
     0
 43
0.0
 10
99.40200621223806
 20
14.30898606928888
 10
101.7295127220729
 20
15.03314514028838
  0
SPLINE
  5
6E7
330
1F
100
AcDbEntity
  8
レイヤー 1
 62
     7
370
     9
100
AcDbSpline
210
0.0
220
0.0
230
1.0
 70
     8
 71
     3
 72
     8
 73
     4
 74
     0
 42
0.000000001
 43
0.0000000001
 40
0.0
 40
0.0
 40
0.0
 40
0.0
 40
1.0
 40
1.0
 40
1.0
 40
1.0
 10
41.74626620929092
 20
27.22533806258757
 30
0.0
 10
54.25747497352421
 20
22.92999301157806
 30
0.0
 10
81.62806958473715
 20
16.7281321190313
 30
0.0
 10
99.28418394664249
 20
14.18702968911103
 30
0.0
  0
SPLINE
  5
6E8
330
1F
100
AcDbEntity
  8
レイヤー 1
 62
     7
370
     9
100
AcDbSpline
210
0.0
220
0.0
230
1.0
 70
     8
 71
     3
 72
     8
 73
     4
 74
     0
 42
0.000000001
 43
0.0000000001
 40
0.0
 40
0.0
 40
0.0
 40
0.0
 40
1.0
 40
1.0
 40
1.0
 40
1.0
 10
101.6599217932707
 20
14.91394483649874
 30
0.0
 10
101.7005739199967
 20
14.9242801229545
 30
0.0
 10
101.732268798461
 20
14.9780236125244
 30
0.0
 10
101.7295127220729
 20
15.03314514028838
 30
0.0
  0
LWPOLYLINE
  5
6E9
330
1F
100
AcDbEntity
  8
レイヤー 1
 62
     7
370
     9
100
AcDbPolyline
 90
       12
 70
     0
 43
0.0
 10
63.39386820040676
 20
83.07998214584612
 10
64.24342874706934
 20
82.73685063551525
 10
65.0371787468709
 20
82.13671500198473
 10
65.7213747102416
 20
81.31953835288346
 10
66.24847431948473
 20
80.34250927326661
 10
66.58402661974816
 20
79.27108457735392
 10
66.70391594263486
 20
78.17967832762676
 10
66.60125209717438
 20
77.14063752927541
 10
66.28154723614324
 20
76.2263091874901
 10
65.76684997064689
 20
75.4980160019083
 10
65.09367831282901
 20
75.00674538571167
 10
64.7911989292241
 20
74.8847890055338
  0
LWPOLYLINE
  5
6F7
330
1F
100
AcDbEntity
  8
レイヤー 1
 62
     7
370
     9
100
AcDbPolyline
 90
        3
 70
     0
 43
0.0
 10
61.95933044034877
 20
83.00763514065588
 10
62.5463747110353
 20
83.14268288367768
 10
63.39386820040676
 20
83.07998214584612
  0
SPLINE
  5
6FC
330
1F
100
AcDbEntity
  8
レイヤー 1
 62
     7
370
     9
100
AcDbSpline
210
0.0
220
0.0
230
1.0
 70
     8
 71
     3
 72
     8
 73
     4
 74
     0
 42
0.000000001
 43
0.0000000001
 40
0.0
 40
0.0
 40
0.0
 40
0.0
 40
1.0
 40
1.0
 40
1.0
 40
1.0
 10
35.63466681845767
 20
112.862832615831
 30
0.0
 10
35.61950839832258
 20
112.8683447686074
 30
0.0
 10
35.59470371082881
 20
112.8669667304133
 30
0.0
 10
35.58161234798484
 20
112.8607655585398
 30
0.0
  0
SPLINE
  5
6FD
330
1F
100
AcDbEntity
  8
レイヤー 1
 62
     7
370
     9
100
AcDbSpline
210
0.0
220
0.0
230
1.0
 70
     8
 71
     3
 72
     8
 73
     4
 74
     0
 42
0.000000001
 43
0.0000000001
 40
0.0
 40
0.0
 40
0.0
 40
0.0
 40
1.0
 40
1.0
 40
1.0
 40
1.0
 10
18.80261929662407
 20
15.77177361232596
 30
0.0
 10
17.70776795141165
 20
16.19069722333234
 30
0.0
 10
15.63933262206757
 20
16.54140794373076
 30
0.0
 10
14.4652440806945
 20
16.50695698887827
 30
0.0
  0
LWPOLYLINE
  5
6FE
330
1F
100
AcDbEntity
  8
レイヤー 1
 62
     7
370
     9
100
AcDbPolyline
 90
       16
 70
     0
 43
0.0
 10
36.73158522096122
 20
10.17487148698906
 10
36.72745110637896
 20
10.19554205990056
 10
36.5400379119813
 20
10.34850429944566
 10
36.08597432702544
 20
10.5751915823751
 10
35.37352858067578
 20
10.87009175591248
 10
34.41923713126158
 20
11.22493659089322
 10
33.24790466627661
 20
11.6328358963468
 10
31.88640293050588
 20
12.08276536672042
 10
30.37193895519005
 20
12.56163363917015
 10
28.73965271427863
 20
13.06117248453138
 10
27.0301963344977
 20
13.56691250176605
 10
25.28422194257308
 20
14.06714036622434
 10
23.54789381800714
 20
14.54876471506226
 10
21.86048604933177
 20
15.00007222362999
 10
20.26609585875821
 20
15.41210564366587
 10
18.80261929662407
 20
15.77177361232596
  0
LWPOLYLINE
  5
710
330
1F
100
AcDbEntity
  8
レイヤー 1
 62
     7
370
     9
100
AcDbPolyline
 90
        8
 70
     0
 43
0.0
 10
99.2600682782458
 20
14.18289557452873
 10
99.25524514456646
 20
14.18496263181987
 10
99.24215378172238
 20
14.19116380369333
 10
99.23112947616977
 20
14.20494418563433
 10
99.22148320881087
 20
14.22216966306057
 10
99.21459301784051
 20
14.24421827416617
 10
99.21045890325826
 20
14.26971198075702
 10
99.20839184596701
 20
14.29796176373607
  0
SPLINE
  5
71A
330
1F
100
AcDbEntity
  8
レイヤー 1
 62
     7
370
     9
100
AcDbSpline
210
0.0
220
0.0
230
1.0
 70
     8
 71
     3
 72
     8
 73
     4
 74
     0
 42
0.000000001
 43
0.0000000001
 40
0.0
 40
0.0
 40
0.0
 40
0.0
 40
1.0
 40
1.0
 40
1.0
 40
1.0
 10
99.33103724524193
 20
14.18840772730513
 30
0.0
 10
99.3772015247443
 20
14.20632222382842
 30
0.0
 10
99.40751836501448
 20
14.26006571339832
 30
0.0
 10
99.40200621223806
 20
14.30898606928888
 30
0.0
  0
SPLINE
  5
71B
330
1F
100
AcDbEntity
  8
レイヤー 1
 62
     7
370
     9
100
AcDbSpline
210
0.0
220
0.0
230
1.0
 70
     8
 71
     3
 72
     8
 73
     4
 74
     0
 42
0.000000001
 43
0.0000000001
 40
0.0
 40
0.0
 40
0.0
 40
0.0
 40
1.0
 40
1.0
 40
1.0
 40
1.0
 10
33.24790466627661
 20
111.8479074858764
 30
0.0
 10
33.25134976176179
 20
111.8341271039354
 30
0.0
 10
33.26719720099396
 20
111.8224137792855
 30
0.0
 10
33.28235562112906
 20
111.8203467219944
 30
0.0
  0
ELLIPSE
  5
7D6
330
1F
100
AcDbEntity
  8
0
100
AcDbEllipse
 10
66.24917550072311
 20
104.3904396148294
 30
0.0
 11
-1.569404769912308
 21
0.02593133482782778
 31
0.0
210
0.0
220
0.0
230
1.0
 40
0.3771756391606346
 41
0.0
 42
6.283185307179586
  0
MTEXT
  5
807
330
1F
100
AcDbEntity
  8
0
100
AcDbMText
 10
112.8997718435259
 20
54.11818774078282
 30
0.0
 40
4.0
 41
193.9441335368037
 71
     1
 72
     5
  1
{\fHGMaruGothicMPRO|b0|i0|c128|p50;●GBK019W（白色塗装）\P●消費電力：LEDモジュール4.5W\P●色温度：2700K\P●器具サイズ：幅■110×出幅67（収納時）～130（最大）\P●質量：0.6ｋｇ\P●可動範囲：首振り角90度、回転角330度\P●ON/OFFスイッチ付き}
  7
KANJI
 73
     1
 44
1.0
1001
ACAD
1000
ACAD_MTEXT_DEFINED_HEIGHT_BEGIN
1070
    46
1040
60.57866405312139
1000
ACAD_MTEXT_DEFINED_HEIGHT_END
  0
ENDSEC
  0
SECTION
  2
OBJECTS
  0
DICTIONARY
  5
C
330
0
100
AcDbDictionary
281
     1
  3
ACAD_COLOR
350
7DF
  3
ACAD_DGNDEFINITIONS
350
7E2
  3
ACAD_DWFDEFINITIONS
350
7E1
  3
ACAD_GROUP
350
D
  3
ACAD_LAYOUT
350
1A
  3
ACAD_MATERIAL
350
7C4
  3
ACAD_MLEADERSTYLE
350
7D3
  3
ACAD_MLINESTYLE
350
17
  3
ACAD_PDFDEFINITIONS
350
7E0
  3
ACAD_PLOTSETTINGS
350
19
  3
ACAD_PLOTSTYLENAME
350
E
  3
ACAD_SCALELIST
350
7B2
  3
ACAD_TABLESTYLE
350
7B1
  3
ACAD_VISUALSTYLE
350
2A
  3
ACDBHEADERROUNDTRIPXREC
350
80A
  3
AcDbVariableDictionary
350
7D7
  3
DWGPROPS
350
80D
  0
DICTIONARY
  5
80E
330
8
100
AcDbDictionary
280
     1
281
     1
  3
ACAD_XREC_ROUNDTRIP
360
80F
  0
DICTIONARY
  5
7DF
102
{ACAD_REACTORS
330
C
102
}
330
C
100
AcDbDictionary
281
     1
  0
DICTIONARY
  5
7E2
102
{ACAD_REACTORS
330
C
102
}
330
C
100
AcDbDictionary
281
     1
  0
DICTIONARY
  5
7E1
102
{ACAD_REACTORS
330
C
102
}
330
C
100
AcDbDictionary
281
     1
  0
DICTIONARY
  5
D
102
{ACAD_REACTORS
330
C
102
}
330
C
100
AcDbDictionary
281
     1
  0
DICTIONARY
  5
1A
102
{ACAD_REACTORS
330
C
102
}
330
C
100
AcDbDictionary
281
     1
  3
Layout1
350
1E
  3
Layout2
350
26
  3
Model
350
22
  0
DICTIONARY
  5
7C4
102
{ACAD_REACTORS
330
C
102
}
330
C
100
AcDbDictionary
281
     1
  3
ByBlock
350
7C6
  3
ByLayer
350
7C5
  3
Global
350
7C7
  0
DICTIONARY
  5
7D3
102
{ACAD_REACTORS
330
C
102
}
330
C
100
AcDbDictionary
281
     1
  3
Standard
350
7D4
  0
DICTIONARY
  5
17
102
{ACAD_REACTORS
330
C
102
}
330
C
100
AcDbDictionary
281
     1
  3
Standard
350
18
  0
DICTIONARY
  5
7E0
102
{ACAD_REACTORS
330
C
102
}
330
C
100
AcDbDictionary
281
     1
  0
DICTIONARY
  5
19
102
{ACAD_REACTORS
330
C
102
}
330
C
100
AcDbDictionary
281
     1
  0
ACDBDICTIONARYWDFLT
  5
E
102
{ACAD_REACTORS
330
C
102
}
330
C
100
AcDbDictionary
281
     1
  3
Normal
350
F
100
AcDbDictionaryWithDefault
340
F
  0
DICTIONARY
  5
7B2
102
{ACAD_REACTORS
330
C
102
}
330
C
100
AcDbDictionary
281
     1
  3
A0
350
7B3
  3
B7
350
7B4
  3
B8
350
7B5
  3
B9
350
7B6
  3
C0
350
7B7
  3
C1
350
7B8
  3
C2
350
7B9
  3
C3
350
7BA
  3
C4
350
7BB
  3
C5
350
7BC
  3
C6
350
7BD
  3
C7
350
7BE
  3
C8
350
7BF
  3
C9
350
7C0
  3
D0
350
7C1
  3
D1
350
7C2
  3
D2
350
7C3
  0
DICTIONARY
  5
7B1
102
{ACAD_REACTORS
330
C
102
}
330
C
100
AcDbDictionary
281
     1
  3
Standard
350
7D2
  0
DICTIONARY
  5
2A
102
{ACAD_REACTORS
330
C
102
}
330
C
100
AcDbDictionary
281
     1
  3
2dWireframe
350
2F
  3
3D Hidden
350
31
  3
3dWireframe
350
30
  3
Basic
350
32
  3
Brighten
350
36
  3
ColorChange
350
3A
  3
Conceptual
350
34
  3
Dim
350
35
  3
EdgeColorOff
350
7CC
  3
Facepattern
350
39
  3
Flat
350
2B
  3
FlatWithEdges
350
2C
  3
Gouraud
350
2D
  3
GouraudWithEdges
350
2E
  3
Hidden
350
7C9
  3
JitterOff
350
7CA
  3
Linepattern
350
38
  3
OverhangOff
350
7CB
  3
Realistic
350
33
  3
Shaded
350
7D1
  3
Shaded with edges
350
7D0
  3
Shades of Gray
350
7CD
  3
Sketchy
350
7CE
  3
Thicken
350
37
  3
Wireframe
350
7C8
  3
X-Ray
350
7CF
  0
DICTIONARY
  5
80A
102
{ACAD_REACTORS
330
C
102
}
330
C
100
AcDbDictionary
281
     1
  3
COLORDICT
350
80B
  3
MATERIALDICT
350
80C
  0
DICTIONARY
  5
7D7
102
{ACAD_REACTORS
330
C
102
}
330
C
100
AcDbDictionary
281
     1
  3
CANNOSCALE
350
7D8
  3
CMLEADERSTYLE
350
7DA
  3
CTABLESTYLE
350
7D9
  3
DIMASSOC
350
808
  3
HIDETEXT
350
809
  3
MSLTSCALE
350
7DB
  0
XRECORD
  5
80D
102
{ACAD_REACTORS
330
C
102
}
330
C
100
AcDbXrecord
280
     1
  1
DWGPROPS COOKIE
  2

  3

  4

  6

  7

  8
OLY18031501
  9

300
=
301
=
302
=
303
=
304
=
305
=
306
=
307
=
308
=
309
=
 40
0.0
 41
2459097.036035683
 42
2459131.452965579
  1

 90
        0
  0
XRECORD
  5
80F
102
{ACAD_REACTORS
330
80E
102
}
330
80E
100
AcDbXrecord
280
     1
102
VTR_0.000_0.000_1.000_1.000_VISUALSTYLE
340
2F
102
VTR_0.000_0.000_1.000_1.000_GRIDDISPLAY
 70
     3
102
VTR_0.000_0.000_1.000_1.000_GRIDMAJOR
 70
     5
102
VTR_0.000_0.000_1.000_1.000_DEFAULTLIGHTING
280
     1
102
VTR_0.000_0.000_1.000_1.000_DEFAULTLIGHTINGTYPE
 70
     1
102
VTR_0.000_0.000_1.000_1.000_BRIGHTNESS
141
0.0
102
VTR_0.000_0.000_1.000_1.000_CONTRAST
142
0.0
  0
LAYOUT
  5
1E
102
{ACAD_REACTORS
330
1A
102
}
330
1A
100
AcDbPlotSettings
  1

  2
none_device
  4

  6

 40
0.0
 41
0.0
 42
0.0
 43
0.0
 44
0.0
 45
0.0
 46
0.0
 47
0.0
 48
0.0
 49
0.0
140
0.0
141
0.0
142
1.0
143
1.0
 70
   688
 72
     0
 73
     0
 74
     5
  7

 75
    16
147
1.0
148
0.0
149
0.0
100
AcDbLayout
  1
Layout1
 70
     1
 71
     1
 10
0.0
 20
0.0
 11
12.0
 21
9.0
 12
0.0
 22
0.0
 32
0.0
 14
1.000000000000000E+20
 24
1.000000000000000E+20
 34
1.000000000000000E+20
 15
-1.000000000000000E+20
 25
-1.000000000000000E+20
 35
-1.000000000000000E+20
146
0.0
 13
0.0
 23
0.0
 33
0.0
 16
1.0
 26
0.0
 36
0.0
 17
0.0
 27
1.0
 37
0.0
 76
     0
330
1B
  0
LAYOUT
  5
26
102
{ACAD_REACTORS
330
1A
102
}
330
1A
100
AcDbPlotSettings
  1

  2
none_device
  4

  6

 40
0.0
 41
0.0
 42
0.0
 43
0.0
 44
0.0
 45
0.0
 46
0.0
 47
0.0
 48
0.0
 49
0.0
140
0.0
141
0.0
142
1.0
143
1.0
 70
   688
 72
     0
 73
     0
 74
     5
  7

 75
    16
147
1.0
148
0.0
149
0.0
100
AcDbLayout
  1
Layout2
 70
     1
 71
     2
 10
0.0
 20
0.0
 11
0.0
 21
0.0
 12
0.0
 22
0.0
 32
0.0
 14
0.0
 24
0.0
 34
0.0
 15
0.0
 25
0.0
 35
0.0
146
0.0
 13
0.0
 23
0.0
 33
0.0
 16
1.0
 26
0.0
 36
0.0
 17
0.0
 27
1.0
 37
0.0
 76
     0
330
23
  0
LAYOUT
  5
22
102
{ACAD_REACTORS
330
1A
102
}
330
1A
100
AcDbPlotSettings
  1

  2
none_device
  4

  6

 40
0.0
 41
0.0
 42
0.0
 43
0.0
 44
0.0
 45
0.0
 46
0.0
 47
0.0
 48
0.0
 49
0.0
140
0.0
141
0.0
142
1.0
143
1.0
 70
  1712
 72
     0
 73
     0
 74
     0
  7

 75
     0
147
1.0
148
0.0
149
0.0
100
AcDbLayout
  1
Model
 70
     1
 71
     0
 10
0.0
 20
0.0
 11
12.0
 21
9.0
 12
0.0
 22
0.0
 32
0.0
 14
14.35637906336063
 24
7.021538256246743
 34
0.0
 15
256.7554419466188
 25
112.8662857465243
 35
0.0
146
0.0
 13
0.0
 23
0.0
 33
0.0
 16
1.0
 26
0.0
 36
0.0
 17
0.0
 27
1.0
 37
0.0
 76
     0
330
1F
331
29
  0
MATERIAL
  5
7C6
102
{ACAD_REACTORS
330
7C4
102
}
102
{ACAD_XDICTIONARY
360
846
102
}
330
7C4
100
AcDbMaterial
  1
ByBlock
  0
MATERIAL
  5
7C5
102
{ACAD_REACTORS
330
7C4
102
}
102
{ACAD_XDICTIONARY
360
844
102
}
330
7C4
100
AcDbMaterial
  1
ByLayer
  0
MATERIAL
  5
7C7
102
{ACAD_REACTORS
330
7C4
102
}
102
{ACAD_XDICTIONARY
360
848
102
}
330
7C4
100
AcDbMaterial
  1
Global
  0
MLEADERSTYLE
  5
7D4
102
{ACAD_REACTORS
330
7D3
102
}
102
{ACAD_XDICTIONARY
360
84A
102
}
330
7D3
100
AcDbMLeaderStyle
170
     2
171
     1
172
     0
 90
        2
 40
0.0
 41
0.0
173
     1
 91
-1056964608
340
15
 92
       -2
290
     1
 42
0.09
291
     1
 43
0.36
  3
Standard
341
0
 44
0.18
300

342
11
174
     1
178
     6
175
     1
176
     0
 93
-1056964608
 45
0.18
292
     0
297
     0
 46
0.18
343
0
 94
-1056964608
 47
1.0
 49
1.0
140
1.0
293
     1
141
0.0
294
     1
177
     0
142
1.0
295
     0
296
     0
143
0.125
1001
ACAD_MLEADERVER
1070
     2
  0
MLINESTYLE
  5
18
102
{ACAD_REACTORS
330
17
102
}
330
17
100
AcDbMlineStyle
  2
Standard
 70
     0
  3

 62
   256
 51
90.0
 52
90.0
 71
     2
 49
0.5
 62
   256
  6
BYLAYER
 49
-0.5
 62
   256
  6
BYLAYER
  0
ACDBPLACEHOLDER
  5
F
102
{ACAD_REACTORS
330
E
102
}
330
E
  0
SCALE
  5
7B3
102
{ACAD_REACTORS
330
7B2
102
}
330
7B2
100
AcDbScale
 70
     0
300
1:1
140
1.0
141
1.0
290
     1
  0
SCALE
  5
7B4
102
{ACAD_REACTORS
330
7B2
102
}
330
7B2
100
AcDbScale
 70
     0
300
1/128" = 1'-0"
140
0.0078125
141
12.0
290
     0
  0
SCALE
  5
7B5
102
{ACAD_REACTORS
330
7B2
102
}
330
7B2
100
AcDbScale
 70
     0
300
1/64" = 1'-0"
140
0.015625
141
12.0
290
     0
  0
SCALE
  5
7B6
102
{ACAD_REACTORS
330
7B2
102
}
330
7B2
100
AcDbScale
 70
     0
300
1/32" = 1'-0"
140
0.03125
141
12.0
290
     0
  0
SCALE
  5
7B7
102
{ACAD_REACTORS
330
7B2
102
}
330
7B2
100
AcDbScale
 70
     0
300
1/16" = 1'-0"
140
0.0625
141
12.0
290
     0
  0
SCALE
  5
7B8
102
{ACAD_REACTORS
330
7B2
102
}
330
7B2
100
AcDbScale
 70
     0
300
3/32" = 1'-0"
140
0.09375
141
12.0
290
     0
  0
SCALE
  5
7B9
102
{ACAD_REACTORS
330
7B2
102
}
330
7B2
100
AcDbScale
 70
     0
300
1/8" = 1'-0"
140
0.125
141
12.0
290
     0
  0
SCALE
  5
7BA
102
{ACAD_REACTORS
330
7B2
102
}
330
7B2
100
AcDbScale
 70
     0
300
3/16" = 1'-0"
140
0.1875
141
12.0
290
     0
  0
SCALE
  5
7BB
102
{ACAD_REACTORS
330
7B2
102
}
330
7B2
100
AcDbScale
 70
     0
300
1/4" = 1'-0"
140
0.25
141
12.0
290
     0
  0
SCALE
  5
7BC
102
{ACAD_REACTORS
330
7B2
102
}
330
7B2
100
AcDbScale
 70
     0
300
3/8" = 1'-0"
140
0.375
141
12.0
290
     0
  0
SCALE
  5
7BD
102
{ACAD_REACTORS
330
7B2
102
}
330
7B2
100
AcDbScale
 70
     0
300
1/2" = 1'-0"
140
0.5
141
12.0
290
     0
  0
SCALE
  5
7BE
102
{ACAD_REACTORS
330
7B2
102
}
330
7B2
100
AcDbScale
 70
     0
300
3/4" = 1'-0"
140
0.75
141
12.0
290
     0
  0
SCALE
  5
7BF
102
{ACAD_REACTORS
330
7B2
102
}
330
7B2
100
AcDbScale
 70
     0
300
1" = 1'-0"
140
1.0
141
12.0
290
     0
  0
SCALE
  5
7C0
102
{ACAD_REACTORS
330
7B2
102
}
330
7B2
100
AcDbScale
 70
     0
300
1-1/2" = 1'-0"
140
1.5
141
12.0
290
     0
  0
SCALE
  5
7C1
102
{ACAD_REACTORS
330
7B2
102
}
330
7B2
100
AcDbScale
 70
     0
300
3" = 1'-0"
140
3.0
141
12.0
290
     0
  0
SCALE
  5
7C2
102
{ACAD_REACTORS
330
7B2
102
}
330
7B2
100
AcDbScale
 70
     0
300
6" = 1'-0"
140
6.0
141
12.0
290
     0
  0
SCALE
  5
7C3
102
{ACAD_REACTORS
330
7B2
102
}
330
7B2
100
AcDbScale
 70
     0
300
1'-0" = 1'-0"
140
12.0
141
12.0
290
     0
  0
TABLESTYLE
  5
7D2
102
{ACAD_REACTORS
330
7B1
102
}
330
7B1
100
AcDbTableStyle
  3
Standard
 70
     0
 71
     0
 40
0.06
 41
0.06
280
     0
281
     0
  7
Standard
140
0.18
170
     2
 62
     0
 63
   257
283
     0
274
    -2
284
     1
 64
     0
275
    -2
285
     1
 65
     0
276
    -2
286
     1
 66
     0
277
    -2
287
     1
 67
     0
278
    -2
288
     1
 68
     0
279
    -2
289
     1
 69
     0
  7
Standard
140
0.25
170
     5
 62
     0
 63
   257
283
     0
274
    -2
284
     1
 64
     0
275
    -2
285
     1
 65
     0
276
    -2
286
     1
 66
     0
277
    -2
287
     1
 67
     0
278
    -2
288
     1
 68
     0
279
    -2
289
     1
 69
     0
  7
Standard
140
0.18
170
     5
 62
     0
 63
   257
283
     0
274
    -2
284
     1
 64
     0
275
    -2
285
     1
 65
     0
276
    -2
286
     1
 66
     0
277
    -2
287
     1
 67
     0
278
    -2
288
     1
 68
     0
279
    -2
289
     1
 69
     0
  0
VISUALSTYLE
  5
2F
102
{ACAD_REACTORS
330
2A
102
}
102
{ACAD_XDICTIONARY
360
818
102
}
330
2A
100
AcDbVisualStyle
  2
2dWireframe
 70
     4
 71
     0
 72
     2
 73
     0
 90
        0
 40
-0.6
 41
-30.0
 62
     5
 63
     7
 74
     1
 91
        4
 64
     7
 65
   257
 75
     1
175
     1
 42
1.0
 92
        0
 66
   257
 43
1.0
 76
     1
 77
     6
 78
     2
 67
     7
 79
     5
170
     0
171
     0
290
     0
174
     0
 93
        1
 44
0.0
173
     0
291
     0
 45
0.0
1001
ACAD
1000
AcDbSavedByObjectVersion
1070
     0
  0
VISUALSTYLE
  5
31
102
{ACAD_REACTORS
330
2A
102
}
102
{ACAD_XDICTIONARY
360
81C
102
}
330
2A
100
AcDbVisualStyle
  2
3D Hidden
 70
     6
 71
     1
 72
     2
 73
     2
 90
        0
 40
-0.6
 41
-30.0
 62
     5
 63
     7
 74
     2
 91
        2
 64
     7
 65
   257
 75
     2
175
     1
 42
40.0
 92
        0
 66
   257
 43
1.0
 76
     1
 77
     6
 78
     2
 67
     7
 79
     3
170
     0
171
     0
290
     0
174
     0
 93
        1
 44
0.0
173
     0
291
     0
 45
0.0
1001
ACAD
1000
AcDbSavedByObjectVersion
1070
     0
  0
VISUALSTYLE
  5
30
102
{ACAD_REACTORS
330
2A
102
}
102
{ACAD_XDICTIONARY
360
81A
102
}
330
2A
100
AcDbVisualStyle
  2
3dWireframe
 70
     5
 71
     0
 72
     2
 73
     0
 90
        0
 40
-0.6
 41
-30.0
 62
     5
 63
     7
 74
     1
 91
        4
 64
     7
 65
   257
 75
     1
175
     1
 42
1.0
 92
        0
 66
   257
 43
1.0
 76
     1
 77
     6
 78
     2
 67
     7
 79
     5
170
     0
171
     0
290
     0
174
     0
 93
        1
 44
0.0
173
     0
291
     0
 45
0.0
1001
ACAD
1000
AcDbSavedByObjectVersion
1070
     0
  0
VISUALSTYLE
  5
32
102
{ACAD_REACTORS
330
2A
102
}
102
{ACAD_XDICTIONARY
360
81E
102
}
330
2A
100
AcDbVisualStyle
  2
Basic
 70
     7
 71
     1
 72
     0
 73
     1
 90
        0
 40
-0.6
 41
-30.0
 62
     5
 63
     7
 74
     0
 91
        4
 64
     7
 65
   257
 75
     1
175
     1
 42
1.0
 92
        8
 66
     7
 43
1.0
 76
     1
 77
     6
 78
     2
 67
     7
 79
     5
170
     0
171
     0
290
     0
174
     0
 93
        1
 44
0.0
173
     0
291
     1
 45
0.0
1001
ACAD
1000
AcDbSavedByObjectVersion
1070
     0
  0
VISUALSTYLE
  5
36
102
{ACAD_REACTORS
330
2A
102
}
102
{ACAD_XDICTIONARY
360
826
102
}
330
2A
100
AcDbVisualStyle
  2
Brighten
 70
    12
 71
     2
 72
     2
 73
     0
 90
        0
 40
-0.6
 41
-30.0
 62
     5
 63
     7
 74
     1
 91
        4
 64
     7
 65
   257
 75
     1
175
     1
 42
1.0
 92
        8
 66
     7
 43
1.0
 76
     1
 77
     6
 78
     2
 67
     7
 79
     5
170
     0
171
     0
290
     0
174
     0
 93
        1
 44
50.0
173
     0
291
     1
 45
0.0
1001
ACAD
1000
AcDbSavedByObjectVersion
1070
     0
  0
VISUALSTYLE
  5
3A
102
{ACAD_REACTORS
330
2A
102
}
102
{ACAD_XDICTIONARY
360
82E
102
}
330
2A
100
AcDbVisualStyle
  2
ColorChange
 70
    16
 71
     2
 72
     2
 73
     3
 90
        0
 40
-0.6
 41
-30.0
 62
     5
 63
     8
 74
     1
 91
        4
 64
     7
 65
   257
 75
     1
175
     1
 42
1.0
 92
        8
 66
     8
 43
1.0
 76
     1
 77
     6
 78
     2
 67
     7
 79
     5
170
     0
171
     0
290
     0
174
     0
 93
        1
 44
0.0
173
     0
291
     1
 45
0.0
1001
ACAD
1000
AcDbSavedByObjectVersion
1070
     0
  0
VISUALSTYLE
  5
34
102
{ACAD_REACTORS
330
2A
102
}
102
{ACAD_XDICTIONARY
360
822
102
}
330
2A
100
AcDbVisualStyle
  2
Conceptual
 70
     9
 71
     3
 72
     2
 73
     0
 90
        0
 40
-0.6
 41
-30.0
 62
     5
 63
     7
 74
     2
 91
        2
 64
     7
 65
   257
 75
     1
175
     1
 42
40.0
 92
        8
 66
     7
 43
1.0
 76
     1
 77
     6
 78
     2
 67
     7
 79
     3
170
     0
171
     0
290
     0
174
     0
 93
        1
 44
0.0
173
     0
291
     0
 45
0.0
1001
ACAD
1000
AcDbSavedByObjectVersion
1070
     0
  0
VISUALSTYLE
  5
35
102
{ACAD_REACTORS
330
2A
102
}
102
{ACAD_XDICTIONARY
360
824
102
}
330
2A
100
AcDbVisualStyle
  2
Dim
 70
    11
 71
     2
 72
     2
 73
     0
 90
        0
 40
-0.6
 41
-30.0
 62
     5
 63
     7
 74
     1
 91
        4
 64
     7
 65
   257
 75
     1
175
     1
 42
1.0
 92
        8
 66
     7
 43
1.0
 76
     1
 77
     6
 78
     2
 67
     7
 79
     5
170
     0
171
     0
290
     0
174
     0
 93
        1
 44
-50.0
173
     0
291
     1
 45
0.0
1001
ACAD
1000
AcDbSavedByObjectVersion
1070
     0
  0
VISUALSTYLE
  5
7CC
102
{ACAD_REACTORS
330
2A
102
}
102
{ACAD_XDICTIONARY
360
838
102
}
330
2A
100
AcDbVisualStyle
  2
EdgeColorOff
 70
    22
 71
     2
 72
     2
 73
     0
 90
        0
 40
0.6
 41
30.0
 62
     5
 63
     7
 74
     1
 91
        4
 64
     7
 65
   257
 75
     1
175
     1
 42
1.0
 92
        8
 66
     7
 43
1.0
 76
     1
 77
     6
 78
     2
 67
     7
 79
     5
170
     0
171
     0
290
     0
174
     0
 93
        1
 44
0.0
173
     0
291
     1
 45
0.0
1001
ACAD
1000
AcDbSavedByObjectVersion
1070
     0
  0
VISUALSTYLE
  5
39
102
{ACAD_REACTORS
330
2A
102
}
102
{ACAD_XDICTIONARY
360
82C
102
}
330
2A
100
AcDbVisualStyle
  2
Facepattern
 70
    15
 71
     2
 72
     2
 73
     0
 90
        0
 40
-0.6
 41
-30.0
 62
     5
 63
     7
 74
     1
 91
        4
 64
     7
 65
   257
 75
     1
175
     1
 42
1.0
 92
        8
 66
     7
 43
1.0
 76
     1
 77
     6
 78
     2
 67
     7
 79
     5
170
     0
171
     0
290
     0
174
     0
 93
        1
 44
0.0
173
     0
291
     1
 45
0.0
1001
ACAD
1000
AcDbSavedByObjectVersion
1070
     0
  0
VISUALSTYLE
  5
2B
102
{ACAD_REACTORS
330
2A
102
}
102
{ACAD_XDICTIONARY
360
810
102
}
330
2A
100
AcDbVisualStyle
  2
Flat
 70
     0
 71
     2
 72
     1
 73
     1
 90
        2
 40
-0.6
 41
30.0
 62
     5
 63
     7
 74
     0
 91
        4
 64
     7
 65
   257
 75
     1
175
     1
 42
1.0
 92
        8
 66
     7
 43
1.0
 76
     1
 77
     6
 78
     2
 67
     7
 79
     5
170
     0
171
     0
290
     0
174
     0
 93
       13
 44
0.0
173
     0
291
     1
 45
0.0
1001
ACAD
1000
AcDbSavedByObjectVersion
1070
     0
  0
VISUALSTYLE
  5
2C
102
{ACAD_REACTORS
330
2A
102
}
102
{ACAD_XDICTIONARY
360
812
102
}
330
2A
100
AcDbVisualStyle
  2
FlatWithEdges
 70
     1
 71
     2
 72
     1
 73
     1
 90
        2
 40
-0.6
 41
30.0
 62
     5
 63
     7
 74
     1
 91
        4
 64
     7
 65
   257
 75
     1
175
     1
 42
1.0
 92
        0
 66
   257
 43
1.0
 76
     1
 77
     6
 78
     2
 67
     7
 79
     5
170
     0
171
     0
290
     0
174
     0
 93
       13
 44
0.0
173
     0
291
     1
 45
0.0
1001
ACAD
1000
AcDbSavedByObjectVersion
1070
     0
  0
VISUALSTYLE
  5
2D
102
{ACAD_REACTORS
330
2A
102
}
102
{ACAD_XDICTIONARY
360
814
102
}
330
2A
100
AcDbVisualStyle
  2
Gouraud
 70
     2
 71
     2
 72
     2
 73
     1
 90
        2
 40
-0.6
 41
30.0
 62
     5
 63
     7
 74
     0
 91
        4
 64
     7
 65
   257
 75
     1
175
     1
 42
1.0
 92
        0
 66
     7
 43
1.0
 76
     1
 77
     6
 78
     2
 67
     7
 79
     5
170
     0
171
     0
290
     0
174
     0
 93
       13
 44
0.0
173
     0
291
     1
 45
0.0
1001
ACAD
1000
AcDbSavedByObjectVersion
1070
     0
  0
VISUALSTYLE
  5
2E
102
{ACAD_REACTORS
330
2A
102
}
102
{ACAD_XDICTIONARY
360
816
102
}
330
2A
100
AcDbVisualStyle
  2
GouraudWithEdges
 70
     3
 71
     2
 72
     2
 73
     1
 90
        2
 40
-0.6
 41
30.0
 62
     5
 63
     7
 74
     1
 91
        4
 64
     7
 65
   257
 75
     1
175
     1
 42
1.0
 92
        0
 66
   257
 43
1.0
 76
     1
 77
     6
 78
     2
 67
     7
 79
     5
170
     0
171
     0
290
     0
174
     0
 93
       13
 44
0.0
173
     0
291
     1
 45
0.0
1001
ACAD
1000
AcDbSavedByObjectVersion
1070
     0
  0
VISUALSTYLE
  5
7C9
102
{ACAD_REACTORS
330
2A
102
}
102
{ACAD_XDICTIONARY
360
832
102
}
330
2A
100
AcDbVisualStyle
  2
Hidden
 70
     6
 71
     1
 72
     2
 73
     2
 90
        0
 40
0.6
 41
30.0
 62
     5
 63
     7
 74
     2
 91
        2
 64
     7
 65
   257
 75
     2
175
     1
 42
40.0
 92
        0
 66
   257
 43
1.0
 76
     1
 77
     6
 78
     2
 67
     7
 79
     3
170
     0
171
     0
290
     0
174
     0
 93
        1
 44
0.0
173
     0
291
     0
 45
0.0
1001
ACAD
1000
AcDbSavedByObjectVersion
1070
     0
  0
VISUALSTYLE
  5
7CA
102
{ACAD_REACTORS
330
2A
102
}
102
{ACAD_XDICTIONARY
360
834
102
}
330
2A
100
AcDbVisualStyle
  2
JitterOff
 70
    20
 71
     2
 72
     2
 73
     0
 90
        0
 40
0.6
 41
30.0
 62
     5
 63
     7
 74
     1
 91
        4
 64
     7
 65
   257
 75
     1
175
     1
 42
1.0
 92
       10
 66
     7
 43
1.0
 76
     1
 77
     6
 78
     2
 67
     7
 79
     5
170
     0
171
     0
290
     0
174
     0
 93
        1
 44
0.0
173
     0
291
     1
 45
0.0
1001
ACAD
1000
AcDbSavedByObjectVersion
1070
     0
  0
VISUALSTYLE
  5
38
102
{ACAD_REACTORS
330
2A
102
}
102
{ACAD_XDICTIONARY
360
82A
102
}
330
2A
100
AcDbVisualStyle
  2
Linepattern
 70
    14
 71
     2
 72
     2
 73
     0
 90
        0
 40
-0.6
 41
-30.0
 62
     5
 63
     7
 74
     1
 91
        4
 64
     7
 65
   257
 75
     7
175
     7
 42
1.0
 92
        8
 66
     7
 43
1.0
 76
     1
 77
     6
 78
     2
 67
     7
 79
     5
170
     0
171
     0
290
     0
174
     0
 93
        1
 44
0.0
173
     0
291
     1
 45
0.0
1001
ACAD
1000
AcDbSavedByObjectVersion
1070
     0
  0
VISUALSTYLE
  5
7CB
102
{ACAD_REACTORS
330
2A
102
}
102
{ACAD_XDICTIONARY
360
836
102
}
330
2A
100
AcDbVisualStyle
  2
OverhangOff
 70
    21
 71
     2
 72
     2
 73
     0
 90
        0
 40
0.6
 41
30.0
 62
     5
 63
     7
 74
     1
 91
        4
 64
     7
 65
   257
 75
     1
175
     1
 42
1.0
 92
        9
 66
     7
 43
1.0
 76
     1
 77
     6
 78
     2
 67
     7
 79
     5
170
     0
171
     0
290
     0
174
     0
 93
        1
 44
0.0
173
     0
291
     1
 45
0.0
1001
ACAD
1000
AcDbSavedByObjectVersion
1070
     0
  0
VISUALSTYLE
  5
33
102
{ACAD_REACTORS
330
2A
102
}
102
{ACAD_XDICTIONARY
360
820
102
}
330
2A
100
AcDbVisualStyle
  2
Realistic
 70
     8
 71
     2
 72
     2
 73
     0
 90
        0
 40
-0.6
 41
-30.0
 62
     5
 63
     7
 74
     1
 91
        0
 64
     7
 65
   257
 75
     1
175
     1
 42
1.0
 92
        8
 66
     8
 43
1.0
 76
     1
 77
     6
 78
     2
 67
     7
 79
     5
170
     0
171
     0
290
     0
174
     0
 93
       13
 44
0.0
173
     0
291
     0
 45
0.0
1001
ACAD
1000
AcDbSavedByObjectVersion
1070
     0
  0
VISUALSTYLE
  5
7D1
102
{ACAD_REACTORS
330
2A
102
}
102
{ACAD_XDICTIONARY
360
842
102
}
330
2A
100
AcDbVisualStyle
  2
Shaded
 70
    27
 71
     2
 72
     2
 73
     1
 90
        2
 40
0.6
 41
30.0
 62
     5
 63
     7
 74
     0
 91
        4
 64
     7
 65
   257
 75
     1
175
     1
 42
1.0
 92
        8
 66
   257
 43
1.0
 76
     1
 77
     6
 78
     2
 67
   251
 79
     3
170
     0
171
     0
290
     0
174
     0
 93
        5
 44
0.0
173
     0
291
     0
 45
0.0
1001
ACAD
1000
AcDbSavedByObjectVersion
1070
     0
  0
VISUALSTYLE
  5
7D0
102
{ACAD_REACTORS
330
2A
102
}
102
{ACAD_XDICTIONARY
360
840
102
}
330
2A
100
AcDbVisualStyle
  2
Shaded with edges
 70
    26
 71
     2
 72
     2
 73
     1
 90
        2
 40
0.6
 41
30.0
 62
     5
 63
     7
 74
     1
 91
       10
 64
     7
 65
   257
 75
     2
175
     1
 42
1.0
 92
        8
 66
   257
 43
1.0
 76
     1
 77
     6
 78
     2
 67
     7
 79
     3
170
     0
171
     0
290
     0
174
     0
 93
        5
 44
0.0
173
     0
291
     0
 45
0.0
1001
ACAD
1000
AcDbSavedByObjectVersion
1070
     0
  0
VISUALSTYLE
  5
7CD
102
{ACAD_REACTORS
330
2A
102
}
102
{ACAD_XDICTIONARY
360
83A
102
}
330
2A
100
AcDbVisualStyle
  2
Shades of Gray
 70
    23
 71
     2
 72
     2
 73
     3
 90
        0
 40
0.6
 41
30.0
 62
     5
 63
     7
 74
     2
 91
        2
 64
     7
 65
     7
 75
     1
175
     1
 42
40.0
 92
        8
 66
     7
 43
1.0
 76
     1
 77
     6
 78
     2
 67
     7
 79
     3
170
     0
171
     0
290
     0
174
     0
 93
        1
 44
0.0
173
     0
291
     0
 45
0.0
1001
ACAD
1000
AcDbSavedByObjectVersion
1070
     0
  0
VISUALSTYLE
  5
7CE
102
{ACAD_REACTORS
330
2A
102
}
102
{ACAD_XDICTIONARY
360
83C
102
}
330
2A
100
AcDbVisualStyle
  2
Sketchy
 70
    24
 71
     1
 72
     2
 73
     2
 90
        0
 40
0.6
 41
30.0
 62
     5
 63
     7
 74
     2
 91
        2
 64
     7
 65
     7
 75
     1
175
     1
 42
40.0
 92
       11
 66
     7
 43
1.0
 76
     1
 77
     6
 78
     2
 67
     7
 79
     6
170
     0
171
     0
290
     0
174
     0
 93
        1
 44
0.0
173
     0
291
     0
 45
0.0
1001
ACAD
1000
AcDbSavedByObjectVersion
1070
     0
  0
VISUALSTYLE
  5
37
102
{ACAD_REACTORS
330
2A
102
}
102
{ACAD_XDICTIONARY
360
828
102
}
330
2A
100
AcDbVisualStyle
  2
Thicken
 70
    13
 71
     2
 72
     2
 73
     0
 90
        0
 40
-0.6
 41
-30.0
 62
     5
 63
     7
 74
     1
 91
        4
 64
     7
 65
   257
 75
     1
175
     1
 42
1.0
 92
       12
 66
     7
 43
1.0
 76
     1
 77
     6
 78
     2
 67
     7
 79
     5
170
     0
171
     0
290
     0
174
     0
 93
        1
 44
0.0
173
     0
291
     1
 45
0.0
1001
ACAD
1000
AcDbSavedByObjectVersion
1070
     0
  0
VISUALSTYLE
  5
7C8
102
{ACAD_REACTORS
330
2A
102
}
102
{ACAD_XDICTIONARY
360
830
102
}
330
2A
100
AcDbVisualStyle
  2
Wireframe
 70
     5
 71
     0
 72
     2
 73
     0
 90
        0
 40
0.6
 41
30.0
 62
     5
 63
     7
 74
     1
 91
        4
 64
     7
 65
   257
 75
     1
175
     1
 42
1.0
 92
        0
 66
   257
 43
1.0
 76
     1
 77
     6
 78
     2
 67
     7
 79
     5
170
     0
171
     0
290
     0
174
     0
 93
        1
 44
0.0
173
     0
291
     0
 45
0.0
1001
ACAD
1000
AcDbSavedByObjectVersion
1070
     0
  0
VISUALSTYLE
  5
7CF
102
{ACAD_REACTORS
330
2A
102
}
102
{ACAD_XDICTIONARY
360
83E
102
}
330
2A
100
AcDbVisualStyle
  2
X-Ray
 70
    25
 71
     2
 72
     2
 73
     1
 90
        1
 40
0.5
 41
30.0
 62
     5
 63
     7
 74
     1
 91
        0
 64
     7
 65
   257
 75
     1
175
     1
 42
1.0
 92
        8
 66
     7
 43
1.0
 76
     1
 77
     6
 78
     2
 67
     7
 79
     3
170
     0
171
     0
290
     0
174
     0
 93
       13
 44
0.0
173
     0
291
     0
 45
0.0
1001
ACAD
1000
AcDbSavedByObjectVersion
1070
     0
  0
XRECORD
  5
80B
102
{ACAD_REACTORS
330
80A
102
}
330
80A
100
AcDbXrecord
280
     1
340
7DF
  0
XRECORD
  5
80C
102
{ACAD_REACTORS
330
80A
102
}
330
80A
100
AcDbXrecord
280
     1
340
7C4
  0
DICTIONARYVAR
  5
7D8
102
{ACAD_REACTORS
330
7D7
102
}
330
7D7
100
DictionaryVariables
280
     0
  1
1:1
  0
DICTIONARYVAR
  5
7DA
102
{ACAD_REACTORS
330
7D7
102
}
330
7D7
100
DictionaryVariables
280
     0
  1
Standard
  0
DICTIONARYVAR
  5
7D9
102
{ACAD_REACTORS
330
7D7
102
}
330
7D7
100
DictionaryVariables
280
     0
  1
Standard
  0
DICTIONARYVAR
  5
808
102
{ACAD_REACTORS
330
7D7
102
}
330
7D7
100
DictionaryVariables
280
     0
  1
2
  0
DICTIONARYVAR
  5
809
102
{ACAD_REACTORS
330
7D7
102
}
330
7D7
100
DictionaryVariables
280
     0
  1
1
  0
DICTIONARYVAR
  5
7DB
102
{ACAD_REACTORS
330
7D7
102
}
330
7D7
100
DictionaryVariables
280
     0
  1
0
  0
DICTIONARY
  5
846
330
7C6
100
AcDbDictionary
280
     1
281
     1
  3
ACAD_XREC_ROUNDTRIP
360
847
  0
DICTIONARY
  5
844
330
7C5
100
AcDbDictionary
280
     1
281
     1
  3
ACAD_XREC_ROUNDTRIP
360
845
  0
DICTIONARY
  5
848
330
7C7
100
AcDbDictionary
280
     1
281
     1
  3
ACAD_XREC_ROUNDTRIP
360
849
  0
DICTIONARY
  5
84A
330
7D4
100
AcDbDictionary
280
     1
281
     1
  3
ACAD_XREC_ROUNDTRIP
360
84B
  0
DICTIONARY
  5
818
330
2F
100
AcDbDictionary
280
     1
281
     1
  3
ACAD_XREC_ROUNDTRIP
360
819
  0
DICTIONARY
  5
81C
330
31
100
AcDbDictionary
280
     1
281
     1
  3
ACAD_XREC_ROUNDTRIP
360
81D
  0
DICTIONARY
  5
81A
330
30
100
AcDbDictionary
280
     1
281
     1
  3
ACAD_XREC_ROUNDTRIP
360
81B
  0
DICTIONARY
  5
81E
330
32
100
AcDbDictionary
280
     1
281
     1
  3
ACAD_XREC_ROUNDTRIP
360
81F
  0
DICTIONARY
  5
826
330
36
100
AcDbDictionary
280
     1
281
     1
  3
ACAD_XREC_ROUNDTRIP
360
827
  0
DICTIONARY
  5
82E
330
3A
100
AcDbDictionary
280
     1
281
     1
  3
ACAD_XREC_ROUNDTRIP
360
82F
  0
DICTIONARY
  5
822
330
34
100
AcDbDictionary
280
     1
281
     1
  3
ACAD_XREC_ROUNDTRIP
360
823
  0
DICTIONARY
  5
824
330
35
100
AcDbDictionary
280
     1
281
     1
  3
ACAD_XREC_ROUNDTRIP
360
825
  0
DICTIONARY
  5
838
330
7CC
100
AcDbDictionary
280
     1
281
     1
  3
ACAD_XREC_ROUNDTRIP
360
839
  0
DICTIONARY
  5
82C
330
39
100
AcDbDictionary
280
     1
281
     1
  3
ACAD_XREC_ROUNDTRIP
360
82D
  0
DICTIONARY
  5
810
330
2B
100
AcDbDictionary
280
     1
281
     1
  3
ACAD_XREC_ROUNDTRIP
360
811
  0
DICTIONARY
  5
812
330
2C
100
AcDbDictionary
280
     1
281
     1
  3
ACAD_XREC_ROUNDTRIP
360
813
  0
DICTIONARY
  5
814
330
2D
100
AcDbDictionary
280
     1
281
     1
  3
ACAD_XREC_ROUNDTRIP
360
815
  0
DICTIONARY
  5
816
330
2E
100
AcDbDictionary
280
     1
281
     1
  3
ACAD_XREC_ROUNDTRIP
360
817
  0
DICTIONARY
  5
832
330
7C9
100
AcDbDictionary
280
     1
281
     1
  3
ACAD_XREC_ROUNDTRIP
360
833
  0
DICTIONARY
  5
834
330
7CA
100
AcDbDictionary
280
     1
281
     1
  3
ACAD_XREC_ROUNDTRIP
360
835
  0
DICTIONARY
  5
82A
330
38
100
AcDbDictionary
280
     1
281
     1
  3
ACAD_XREC_ROUNDTRIP
360
82B
  0
DICTIONARY
  5
836
330
7CB
100
AcDbDictionary
280
     1
281
     1
  3
ACAD_XREC_ROUNDTRIP
360
837
  0
DICTIONARY
  5
820
330
33
100
AcDbDictionary
280
     1
281
     1
  3
ACAD_XREC_ROUNDTRIP
360
821
  0
DICTIONARY
  5
842
330
7D1
100
AcDbDictionary
280
     1
281
     1
  3
ACAD_XREC_ROUNDTRIP
360
843
  0
DICTIONARY
  5
840
330
7D0
100
AcDbDictionary
280
     1
281
     1
  3
ACAD_XREC_ROUNDTRIP
360
841
  0
DICTIONARY
  5
83A
330
7CD
100
AcDbDictionary
280
     1
281
     1
  3
ACAD_XREC_ROUNDTRIP
360
83B
  0
DICTIONARY
  5
83C
330
7CE
100
AcDbDictionary
280
     1
281
     1
  3
ACAD_XREC_ROUNDTRIP
360
83D
  0
DICTIONARY
  5
828
330
37
100
AcDbDictionary
280
     1
281
     1
  3
ACAD_XREC_ROUNDTRIP
360
829
  0
DICTIONARY
  5
830
330
7C8
100
AcDbDictionary
280
     1
281
     1
  3
ACAD_XREC_ROUNDTRIP
360
831
  0
DICTIONARY
  5
83E
330
7CF
100
AcDbDictionary
280
     1
281
     1
  3
ACAD_XREC_ROUNDTRIP
360
83F
  0
XRECORD
  5
847
102
{ACAD_REACTORS
330
846
102
}
330
846
100
AcDbXrecord
280
     1
102
MATERIAL
148
0.0
149
0.0
149
0.0
 93
        0
 94
      127
282
     0
 72
     1
 77
     1
171
     1
175
     1
179
     1
273
     0
  0
XRECORD
  5
845
102
{ACAD_REACTORS
330
844
102
}
330
844
100
AcDbXrecord
280
     1
102
MATERIAL
148
0.0
149
0.0
149
0.0
 93
        0
 94
      127
282
     0
 72
     1
 77
     1
171
     1
175
     1
179
     1
273
     0
  0
XRECORD
  5
849
102
{ACAD_REACTORS
330
848
102
}
330
848
100
AcDbXrecord
280
     1
102
MATERIAL
148
0.0
149
0.0
149
0.0
 93
        0
 94
      127
282
     0
 72
     1
 77
     1
171
     1
175
     1
179
     1
273
     0
  0
XRECORD
  5
84B
102
{ACAD_REACTORS
330
84A
102
}
330
84A
100
AcDbXrecord
280
     1
102
ACAD_ROUNDTRIP_2010_MLEADER_STYLE
  0
XRECORD
  5
819
102
{ACAD_REACTORS
330
818
102
}
330
818
100
AcDbXrecord
280
     1
102
RTVSPropertyOp0
 70
     1
102
RTVSPropertyOp1
 70
     1
102
RTVSPropertyOp2
 70
     1
102
RTVSPropertyOp3
 70
     1
102
RTVSPropertyOp4
 70
     1
102
RTVSPropertyOp5
 70
     1
102
RTVSPropertyOp6
 70
     1
102
RTVSPropertyOp7
 70
     1
102
RTVSPropertyOp8
 70
     1
102
RTVSPropertyOp9
 70
     1
102
RTVSPropertyOp10
 70
     1
102
RTVSPropertyOp11
 70
     1
102
RTVSPropertyOp12
 70
     1
102
RTVSPropertyOp13
 70
     1
102
RTVSPropertyOp14
 70
     1
102
RTVSPropertyOp15
 70
     1
102
RTVSPropertyOp16
 70
     1
102
RTVSPropertyOp17
 70
     1
102
RTVSPropertyOp18
 70
     1
102
RTVSPropertyOp19
 70
     1
102
RTVSPropertyOp20
 70
     1
102
RTVSPropertyOp21
 70
     1
102
RTVSPropertyOp22
 70
     1
102
RTVSPropertyOp23
 70
     1
102
RTVSPropertyOp24
 70
     1
102
RTVSPropertyOp25
 70
     1
102
RTVSPropertyOp26
 70
     1
102
RTVSPropertyOp27
 70
     1
102
RTVSPropertyOp28
 70
     1
102
RTVSPropertyOp29
 70
     1
102
RTVSPropertyOp30
 70
     1
102
RTVSPropertyOp31
 70
     1
102
RTVSPropertyOp32
 70
     1
102
RTVSPropertyOp33
 70
     1
102
RTVSPropertyOp34
 70
     1
102
RTVSPropertyOp35
 70
     1
102
RTVSPropertyOp36
 70
     1
102
RTVSPropertyOp37
 70
     1
102
RTVSPropertyOp38
 70
     1
102
RTVSPropertyOp39
 70
     1
102
RTVSPropertyOp40
 70
     1
102
RTVSPropertyOp41
 70
     1
102
RTVSPropertyOp42
 70
     1
102
RTVSPropertyOp43
 70
     1
102
RTVSPropertyOp44
 70
     1
102
RTVSPropertyOp45
 70
     1
102
RTVSPropertyOp46
 70
     1
102
RTVSPropertyOp47
 70
     1
102
RTVSPropertyOp48
 70
     1
102
RTVSPropertyOp49
 70
     1
102
RTVSPropertyOp50
 70
     1
102
RTVSPropertyOp51
 70
     0
102
RTVSPropertyOp52
 70
     0
102
RTVSPropertyOp53
 70
     1
102
RTVSPropertyOp54
 70
     1
102
RTVSPropertyOp55
 70
     1
102
RTVSPropertyOp56
 70
     1
102
RTVSPropertyOp57
 70
     1
102
RTVSPost2010Prop28
280
     1
102
RTVSPost2010PropOp28
 70
     1
102
RTVSPost2010Prop29
280
     1
102
RTVSPost2010PropOp29
 70
     1
102
RTVSPost2010Prop30
280
     0
102
RTVSPost2010PropOp30
 70
     1
102
RTVSPost2010Prop31
280
     0
102
RTVSPost2010PropOp31
 70
     1
102
RTVSPost2010Prop32
280
     0
102
RTVSPost2010PropOp32
 70
     1
102
RTVSPost2010Prop33
280
     0
102
RTVSPost2010PropOp33
 70
     1
102
RTVSPost2010Prop34
280
     0
102
RTVSPost2010PropOp34
 70
     1
102
RTVSPost2010Prop35
280
     0
102
RTVSPost2010PropOp35
 70
     1
102
RTVSPost2010Prop36
280
     0
102
RTVSPost2010PropOp36
 70
     1
102
RTVSPost2010Prop37
 90
       50
102
RTVSPost2010PropOp37
 70
     1
102
RTVSPost2010Prop38
140
0.0
102
RTVSPost2010PropOp38
 70
     1
102
RTVSPost2010Prop39
140
1.0
102
RTVSPost2010PropOp39
 70
     1
102
RTVSPost2010Prop40
 90
        0
102
RTVSPost2010PropOp40
 70
     1
102
RTVSPost2010Prop41ColorIndex
 90
       18
102
RTVSPost2010Prop41ColorRGB
 90
        0
102
RTVSPost2010PropOp41
 70
     1
102
RTVSPost2010Prop42
 90
       50
102
RTVSPost2010PropOp42
 70
     1
102
RTVSPost2010Prop43
 90
        3
102
RTVSPost2010PropOp43
 70
     1
102
RTVSPost2010Prop44ColorIndex
 90
        5
102
RTVSPost2010Prop44ColorRGB
 90
      255
102
RTVSPost2010PropOp44
 70
     1
102
RTVSPost2010Prop45
280
     0
102
RTVSPost2010PropOp45
 70
     1
102
RTVSPost2010Prop46
 90
       50
102
RTVSPost2010PropOp46
 70
     1
102
RTVSPost2010Prop47
 90
       50
102
RTVSPost2010PropOp47
 70
     1
102
RTVSPost2010Prop48
 90
       50
102
RTVSPost2010PropOp48
 70
     1
102
RTVSPost2010Prop49
280
     0
102
RTVSPost2010PropOp49
 70
     1
102
RTVSPost2010Prop50
 90
       50
102
RTVSPost2010PropOp50
 70
     1
102
RTVSPost2010Prop51ColorIndex
 90
      256
102
RTVSPost2010Prop51ColorRGB
 90
-16777216
102
RTVSPost2010PropOp51
 70
     0
102
RTVSPost2010Prop52
140
1.0
102
RTVSPost2010PropOp52
 70
     0
102
RTVSPost2010Prop53
 90
        2
102
RTVSPost2010PropOp53
 70
     1
102
RTVSPost2010Prop54
  1
strokes_ogs.tif
102
RTVSPost2010PropOp54
 70
     1
102
RTVSPost2010Prop55
280
     0
102
RTVSPost2010PropOp55
 70
     1
102
RTVSPost2010Prop56
140
1.0
102
RTVSPost2010PropOp56
 70
     1
102
RTVSPost2010Prop57
140
1.0
102
RTVSPost2010PropOp57
 70
     1
  0
XRECORD
  5
81D
102
{ACAD_REACTORS
330
81C
102
}
330
81C
100
AcDbXrecord
280
     1
102
RTVSPropertyOp0
 70
     1
102
RTVSPropertyOp1
 70
     1
102
RTVSPropertyOp2
 70
     1
102
RTVSPropertyOp3
 70
     1
102
RTVSPropertyOp4
 70
     1
102
RTVSPropertyOp5
 70
     1
102
RTVSPropertyOp6
 70
     1
102
RTVSPropertyOp7
 70
     1
102
RTVSPropertyOp8
 70
     1
102
RTVSPropertyOp9
 70
     1
102
RTVSPropertyOp10
 70
     1
102
RTVSPropertyOp11
 70
     1
102
RTVSPropertyOp12
 70
     1
102
RTVSPropertyOp13
 70
     1
102
RTVSPropertyOp14
 70
     1
102
RTVSPropertyOp15
 70
     1
102
RTVSPropertyOp16
 70
     1
102
RTVSPropertyOp17
 70
     1
102
RTVSPropertyOp18
 70
     1
102
RTVSPropertyOp19
 70
     1
102
RTVSPropertyOp20
 70
     1
102
RTVSPropertyOp21
 70
     1
102
RTVSPropertyOp22
 70
     1
102
RTVSPropertyOp23
 70
     1
102
RTVSPropertyOp24
 70
     1
102
RTVSPropertyOp25
 70
     1
102
RTVSPropertyOp26
 70
     1
102
RTVSPropertyOp27
 70
     1
102
RTVSPropertyOp28
 70
     1
102
RTVSPropertyOp29
 70
     1
102
RTVSPropertyOp30
 70
     1
102
RTVSPropertyOp31
 70
     1
102
RTVSPropertyOp32
 70
     1
102
RTVSPropertyOp33
 70
     1
102
RTVSPropertyOp34
 70
     1
102
RTVSPropertyOp35
 70
     1
102
RTVSPropertyOp36
 70
     1
102
RTVSPropertyOp37
 70
     1
102
RTVSPropertyOp38
 70
     1
102
RTVSPropertyOp39
 70
     1
102
RTVSPropertyOp40
 70
     1
102
RTVSPropertyOp41
 70
     1
102
RTVSPropertyOp42
 70
     1
102
RTVSPropertyOp43
 70
     1
102
RTVSPropertyOp44
 70
     1
102
RTVSPropertyOp45
 70
     1
102
RTVSPropertyOp46
 70
     1
102
RTVSPropertyOp47
 70
     1
102
RTVSPropertyOp48
 70
     1
102
RTVSPropertyOp49
 70
     1
102
RTVSPropertyOp50
 70
     1
102
RTVSPropertyOp51
 70
     0
102
RTVSPropertyOp52
 70
     0
102
RTVSPropertyOp53
 70
     1
102
RTVSPropertyOp54
 70
     1
102
RTVSPropertyOp55
 70
     1
102
RTVSPropertyOp56
 70
     1
102
RTVSPropertyOp57
 70
     1
102
RTVSPost2010Prop28
280
     0
102
RTVSPost2010PropOp28
 70
     1
102
RTVSPost2010Prop29
280
     1
102
RTVSPost2010PropOp29
 70
     1
102
RTVSPost2010Prop30
280
     1
102
RTVSPost2010PropOp30
 70
     1
102
RTVSPost2010Prop31
280
     0
102
RTVSPost2010PropOp31
 70
     1
102
RTVSPost2010Prop32
280
     0
102
RTVSPost2010PropOp32
 70
     1
102
RTVSPost2010Prop33
280
     0
102
RTVSPost2010PropOp33
 70
     1
102
RTVSPost2010Prop34
280
     0
102
RTVSPost2010PropOp34
 70
     1
102
RTVSPost2010Prop35
280
     0
102
RTVSPost2010PropOp35
 70
     1
102
RTVSPost2010Prop36
280
     0
102
RTVSPost2010PropOp36
 70
     1
102
RTVSPost2010Prop37
 90
       50
102
RTVSPost2010PropOp37
 70
     1
102
RTVSPost2010Prop38
140
0.0
102
RTVSPost2010PropOp38
 70
     1
102
RTVSPost2010Prop39
140
1.0
102
RTVSPost2010PropOp39
 70
     1
102
RTVSPost2010Prop40
 90
        0
102
RTVSPost2010PropOp40
 70
     1
102
RTVSPost2010Prop41ColorIndex
 90
       18
102
RTVSPost2010Prop41ColorRGB
 90
        0
102
RTVSPost2010PropOp41
 70
     1
102
RTVSPost2010Prop42
 90
       50
102
RTVSPost2010PropOp42
 70
     1
102
RTVSPost2010Prop43
 90
        3
102
RTVSPost2010PropOp43
 70
     1
102
RTVSPost2010Prop44ColorIndex
 90
        5
102
RTVSPost2010Prop44ColorRGB
 90
      255
102
RTVSPost2010PropOp44
 70
     1
102
RTVSPost2010Prop45
280
     0
102
RTVSPost2010PropOp45
 70
     1
102
RTVSPost2010Prop46
 90
       50
102
RTVSPost2010PropOp46
 70
     1
102
RTVSPost2010Prop47
 90
       50
102
RTVSPost2010PropOp47
 70
     1
102
RTVSPost2010Prop48
 90
       50
102
RTVSPost2010PropOp48
 70
     1
102
RTVSPost2010Prop49
280
     0
102
RTVSPost2010PropOp49
 70
     1
102
RTVSPost2010Prop50
 90
       50
102
RTVSPost2010PropOp50
 70
     1
102
RTVSPost2010Prop51ColorIndex
 90
      256
102
RTVSPost2010Prop51ColorRGB
 90
-16777216
102
RTVSPost2010PropOp51
 70
     0
102
RTVSPost2010Prop52
140
1.0
102
RTVSPost2010PropOp52
 70
     0
102
RTVSPost2010Prop53
 90
        2
102
RTVSPost2010PropOp53
 70
     1
102
RTVSPost2010Prop54
  1
strokes_ogs.tif
102
RTVSPost2010PropOp54
 70
     1
102
RTVSPost2010Prop55
280
     0
102
RTVSPost2010PropOp55
 70
     1
102
RTVSPost2010Prop56
140
1.0
102
RTVSPost2010PropOp56
 70
     1
102
RTVSPost2010Prop57
140
1.0
102
RTVSPost2010PropOp57
 70
     1
  0
XRECORD
  5
81B
102
{ACAD_REACTORS
330
81A
102
}
330
81A
100
AcDbXrecord
280
     1
102
RTVSPropertyOp0
 70
     1
102
RTVSPropertyOp1
 70
     1
102
RTVSPropertyOp2
 70
     1
102
RTVSPropertyOp3
 70
     1
102
RTVSPropertyOp4
 70
     1
102
RTVSPropertyOp5
 70
     1
102
RTVSPropertyOp6
 70
     1
102
RTVSPropertyOp7
 70
     1
102
RTVSPropertyOp8
 70
     1
102
RTVSPropertyOp9
 70
     1
102
RTVSPropertyOp10
 70
     1
102
RTVSPropertyOp11
 70
     1
102
RTVSPropertyOp12
 70
     1
102
RTVSPropertyOp13
 70
     1
102
RTVSPropertyOp14
 70
     1
102
RTVSPropertyOp15
 70
     1
102
RTVSPropertyOp16
 70
     1
102
RTVSPropertyOp17
 70
     1
102
RTVSPropertyOp18
 70
     1
102
RTVSPropertyOp19
 70
     1
102
RTVSPropertyOp20
 70
     1
102
RTVSPropertyOp21
 70
     1
102
RTVSPropertyOp22
 70
     1
102
RTVSPropertyOp23
 70
     1
102
RTVSPropertyOp24
 70
     1
102
RTVSPropertyOp25
 70
     1
102
RTVSPropertyOp26
 70
     1
102
RTVSPropertyOp27
 70
     1
102
RTVSPropertyOp28
 70
     1
102
RTVSPropertyOp29
 70
     1
102
RTVSPropertyOp30
 70
     1
102
RTVSPropertyOp31
 70
     1
102
RTVSPropertyOp32
 70
     1
102
RTVSPropertyOp33
 70
     1
102
RTVSPropertyOp34
 70
     1
102
RTVSPropertyOp35
 70
     1
102
RTVSPropertyOp36
 70
     1
102
RTVSPropertyOp37
 70
     1
102
RTVSPropertyOp38
 70
     1
102
RTVSPropertyOp39
 70
     1
102
RTVSPropertyOp40
 70
     1
102
RTVSPropertyOp41
 70
     1
102
RTVSPropertyOp42
 70
     1
102
RTVSPropertyOp43
 70
     1
102
RTVSPropertyOp44
 70
     1
102
RTVSPropertyOp45
 70
     1
102
RTVSPropertyOp46
 70
     1
102
RTVSPropertyOp47
 70
     1
102
RTVSPropertyOp48
 70
     1
102
RTVSPropertyOp49
 70
     1
102
RTVSPropertyOp50
 70
     1
102
RTVSPropertyOp51
 70
     0
102
RTVSPropertyOp52
 70
     0
102
RTVSPropertyOp53
 70
     1
102
RTVSPropertyOp54
 70
     1
102
RTVSPropertyOp55
 70
     1
102
RTVSPropertyOp56
 70
     1
102
RTVSPropertyOp57
 70
     1
102
RTVSPost2010Prop28
280
     0
102
RTVSPost2010PropOp28
 70
     1
102
RTVSPost2010Prop29
280
     1
102
RTVSPost2010PropOp29
 70
     1
102
RTVSPost2010Prop30
280
     1
102
RTVSPost2010PropOp30
 70
     1
102
RTVSPost2010Prop31
280
     0
102
RTVSPost2010PropOp31
 70
     1
102
RTVSPost2010Prop32
280
     0
102
RTVSPost2010PropOp32
 70
     1
102
RTVSPost2010Prop33
280
     0
102
RTVSPost2010PropOp33
 70
     1
102
RTVSPost2010Prop34
280
     0
102
RTVSPost2010PropOp34
 70
     1
102
RTVSPost2010Prop35
280
     0
102
RTVSPost2010PropOp35
 70
     1
102
RTVSPost2010Prop36
280
     0
102
RTVSPost2010PropOp36
 70
     1
102
RTVSPost2010Prop37
 90
       50
102
RTVSPost2010PropOp37
 70
     1
102
RTVSPost2010Prop38
140
0.0
102
RTVSPost2010PropOp38
 70
     1
102
RTVSPost2010Prop39
140
1.0
102
RTVSPost2010PropOp39
 70
     1
102
RTVSPost2010Prop40
 90
        0
102
RTVSPost2010PropOp40
 70
     1
102
RTVSPost2010Prop41ColorIndex
 90
       18
102
RTVSPost2010Prop41ColorRGB
 90
        0
102
RTVSPost2010PropOp41
 70
     1
102
RTVSPost2010Prop42
 90
       50
102
RTVSPost2010PropOp42
 70
     1
102
RTVSPost2010Prop43
 90
        3
102
RTVSPost2010PropOp43
 70
     1
102
RTVSPost2010Prop44ColorIndex
 90
        5
102
RTVSPost2010Prop44ColorRGB
 90
      255
102
RTVSPost2010PropOp44
 70
     1
102
RTVSPost2010Prop45
280
     0
102
RTVSPost2010PropOp45
 70
     1
102
RTVSPost2010Prop46
 90
       50
102
RTVSPost2010PropOp46
 70
     1
102
RTVSPost2010Prop47
 90
       50
102
RTVSPost2010PropOp47
 70
     1
102
RTVSPost2010Prop48
 90
       50
102
RTVSPost2010PropOp48
 70
     1
102
RTVSPost2010Prop49
280
     0
102
RTVSPost2010PropOp49
 70
     1
102
RTVSPost2010Prop50
 90
       50
102
RTVSPost2010PropOp50
 70
     1
102
RTVSPost2010Prop51ColorIndex
 90
      256
102
RTVSPost2010Prop51ColorRGB
 90
-16777216
102
RTVSPost2010PropOp51
 70
     0
102
RTVSPost2010Prop52
140
1.0
102
RTVSPost2010PropOp52
 70
     0
102
RTVSPost2010Prop53
 90
        2
102
RTVSPost2010PropOp53
 70
     1
102
RTVSPost2010Prop54
  1
strokes_ogs.tif
102
RTVSPost2010PropOp54
 70
     1
102
RTVSPost2010Prop55
280
     0
102
RTVSPost2010PropOp55
 70
     1
102
RTVSPost2010Prop56
140
1.0
102
RTVSPost2010PropOp56
 70
     1
102
RTVSPost2010Prop57
140
1.0
102
RTVSPost2010PropOp57
 70
     1
  0
XRECORD
  5
81F
102
{ACAD_REACTORS
330
81E
102
}
330
81E
100
AcDbXrecord
280
     1
102
RTVSPropertyOp0
 70
     1
102
RTVSPropertyOp1
 70
     1
102
RTVSPropertyOp2
 70
     1
102
RTVSPropertyOp3
 70
     1
102
RTVSPropertyOp4
 70
     1
102
RTVSPropertyOp5
 70
     1
102
RTVSPropertyOp6
 70
     1
102
RTVSPropertyOp7
 70
     1
102
RTVSPropertyOp8
 70
     1
102
RTVSPropertyOp9
 70
     1
102
RTVSPropertyOp10
 70
     1
102
RTVSPropertyOp11
 70
     1
102
RTVSPropertyOp12
 70
     1
102
RTVSPropertyOp13
 70
     1
102
RTVSPropertyOp14
 70
     1
102
RTVSPropertyOp15
 70
     1
102
RTVSPropertyOp16
 70
     1
102
RTVSPropertyOp17
 70
     1
102
RTVSPropertyOp18
 70
     1
102
RTVSPropertyOp19
 70
     1
102
RTVSPropertyOp20
 70
     1
102
RTVSPropertyOp21
 70
     1
102
RTVSPropertyOp22
 70
     1
102
RTVSPropertyOp23
 70
     1
102
RTVSPropertyOp24
 70
     1
102
RTVSPropertyOp25
 70
     1
102
RTVSPropertyOp26
 70
     1
102
RTVSPropertyOp27
 70
     1
102
RTVSPropertyOp28
 70
     1
102
RTVSPropertyOp29
 70
     1
102
RTVSPropertyOp30
 70
     1
102
RTVSPropertyOp31
 70
     1
102
RTVSPropertyOp32
 70
     1
102
RTVSPropertyOp33
 70
     1
102
RTVSPropertyOp34
 70
     1
102
RTVSPropertyOp35
 70
     1
102
RTVSPropertyOp36
 70
     1
102
RTVSPropertyOp37
 70
     1
102
RTVSPropertyOp38
 70
     1
102
RTVSPropertyOp39
 70
     1
102
RTVSPropertyOp40
 70
     1
102
RTVSPropertyOp41
 70
     1
102
RTVSPropertyOp42
 70
     1
102
RTVSPropertyOp43
 70
     1
102
RTVSPropertyOp44
 70
     1
102
RTVSPropertyOp45
 70
     1
102
RTVSPropertyOp46
 70
     1
102
RTVSPropertyOp47
 70
     1
102
RTVSPropertyOp48
 70
     1
102
RTVSPropertyOp49
 70
     1
102
RTVSPropertyOp50
 70
     1
102
RTVSPropertyOp51
 70
     0
102
RTVSPropertyOp52
 70
     0
102
RTVSPropertyOp53
 70
     1
102
RTVSPropertyOp54
 70
     1
102
RTVSPropertyOp55
 70
     1
102
RTVSPropertyOp56
 70
     1
102
RTVSPropertyOp57
 70
     1
102
RTVSPost2010Prop28
280
     0
102
RTVSPost2010PropOp28
 70
     1
102
RTVSPost2010Prop29
280
     1
102
RTVSPost2010PropOp29
 70
     1
102
RTVSPost2010Prop30
280
     1
102
RTVSPost2010PropOp30
 70
     1
102
RTVSPost2010Prop31
280
     0
102
RTVSPost2010PropOp31
 70
     1
102
RTVSPost2010Prop32
280
     0
102
RTVSPost2010PropOp32
 70
     1
102
RTVSPost2010Prop33
280
     0
102
RTVSPost2010PropOp33
 70
     1
102
RTVSPost2010Prop34
280
     0
102
RTVSPost2010PropOp34
 70
     1
102
RTVSPost2010Prop35
280
     0
102
RTVSPost2010PropOp35
 70
     1
102
RTVSPost2010Prop36
280
     0
102
RTVSPost2010PropOp36
 70
     1
102
RTVSPost2010Prop37
 90
       50
102
RTVSPost2010PropOp37
 70
     1
102
RTVSPost2010Prop38
140
0.0
102
RTVSPost2010PropOp38
 70
     1
102
RTVSPost2010Prop39
140
1.0
102
RTVSPost2010PropOp39
 70
     1
102
RTVSPost2010Prop40
 90
        0
102
RTVSPost2010PropOp40
 70
     1
102
RTVSPost2010Prop41ColorIndex
 90
       18
102
RTVSPost2010Prop41ColorRGB
 90
        0
102
RTVSPost2010PropOp41
 70
     1
102
RTVSPost2010Prop42
 90
       50
102
RTVSPost2010PropOp42
 70
     1
102
RTVSPost2010Prop43
 90
        3
102
RTVSPost2010PropOp43
 70
     1
102
RTVSPost2010Prop44ColorIndex
 90
        5
102
RTVSPost2010Prop44ColorRGB
 90
      255
102
RTVSPost2010PropOp44
 70
     1
102
RTVSPost2010Prop45
280
     0
102
RTVSPost2010PropOp45
 70
     1
102
RTVSPost2010Prop46
 90
       50
102
RTVSPost2010PropOp46
 70
     1
102
RTVSPost2010Prop47
 90
       50
102
RTVSPost2010PropOp47
 70
     1
102
RTVSPost2010Prop48
 90
       50
102
RTVSPost2010PropOp48
 70
     1
102
RTVSPost2010Prop49
280
     0
102
RTVSPost2010PropOp49
 70
     1
102
RTVSPost2010Prop50
 90
       50
102
RTVSPost2010PropOp50
 70
     1
102
RTVSPost2010Prop51ColorIndex
 90
      256
102
RTVSPost2010Prop51ColorRGB
 90
-16777216
102
RTVSPost2010PropOp51
 70
     0
102
RTVSPost2010Prop52
140
1.0
102
RTVSPost2010PropOp52
 70
     0
102
RTVSPost2010Prop53
 90
        2
102
RTVSPost2010PropOp53
 70
     1
102
RTVSPost2010Prop54
  1
strokes_ogs.tif
102
RTVSPost2010PropOp54
 70
     1
102
RTVSPost2010Prop55
280
     0
102
RTVSPost2010PropOp55
 70
     1
102
RTVSPost2010Prop56
140
1.0
102
RTVSPost2010PropOp56
 70
     1
102
RTVSPost2010Prop57
140
1.0
102
RTVSPost2010PropOp57
 70
     1
  0
XRECORD
  5
827
102
{ACAD_REACTORS
330
826
102
}
330
826
100
AcDbXrecord
280
     1
102
RTVSPropertyOp0
 70
     1
102
RTVSPropertyOp1
 70
     1
102
RTVSPropertyOp2
 70
     1
102
RTVSPropertyOp3
 70
     1
102
RTVSPropertyOp4
 70
     1
102
RTVSPropertyOp5
 70
     1
102
RTVSPropertyOp6
 70
     1
102
RTVSPropertyOp7
 70
     1
102
RTVSPropertyOp8
 70
     1
102
RTVSPropertyOp9
 70
     1
102
RTVSPropertyOp10
 70
     1
102
RTVSPropertyOp11
 70
     1
102
RTVSPropertyOp12
 70
     1
102
RTVSPropertyOp13
 70
     1
102
RTVSPropertyOp14
 70
     1
102
RTVSPropertyOp15
 70
     1
102
RTVSPropertyOp16
 70
     1
102
RTVSPropertyOp17
 70
     1
102
RTVSPropertyOp18
 70
     1
102
RTVSPropertyOp19
 70
     1
102
RTVSPropertyOp20
 70
     1
102
RTVSPropertyOp21
 70
     1
102
RTVSPropertyOp22
 70
     1
102
RTVSPropertyOp23
 70
     1
102
RTVSPropertyOp24
 70
     1
102
RTVSPropertyOp25
 70
     1
102
RTVSPropertyOp26
 70
     1
102
RTVSPropertyOp27
 70
     1
102
RTVSPropertyOp28
 70
     1
102
RTVSPropertyOp29
 70
     1
102
RTVSPropertyOp30
 70
     1
102
RTVSPropertyOp31
 70
     1
102
RTVSPropertyOp32
 70
     1
102
RTVSPropertyOp33
 70
     1
102
RTVSPropertyOp34
 70
     1
102
RTVSPropertyOp35
 70
     1
102
RTVSPropertyOp36
 70
     1
102
RTVSPropertyOp37
 70
     1
102
RTVSPropertyOp38
 70
     1
102
RTVSPropertyOp39
 70
     1
102
RTVSPropertyOp40
 70
     1
102
RTVSPropertyOp41
 70
     1
102
RTVSPropertyOp42
 70
     1
102
RTVSPropertyOp43
 70
     1
102
RTVSPropertyOp44
 70
     1
102
RTVSPropertyOp45
 70
     1
102
RTVSPropertyOp46
 70
     1
102
RTVSPropertyOp47
 70
     1
102
RTVSPropertyOp48
 70
     1
102
RTVSPropertyOp49
 70
     1
102
RTVSPropertyOp50
 70
     1
102
RTVSPropertyOp51
 70
     0
102
RTVSPropertyOp52
 70
     0
102
RTVSPropertyOp53
 70
     1
102
RTVSPropertyOp54
 70
     1
102
RTVSPropertyOp55
 70
     1
102
RTVSPropertyOp56
 70
     1
102
RTVSPropertyOp57
 70
     1
102
RTVSPost2010Prop28
280
     0
102
RTVSPost2010PropOp28
 70
     1
102
RTVSPost2010Prop29
280
     1
102
RTVSPost2010PropOp29
 70
     1
102
RTVSPost2010Prop30
280
     1
102
RTVSPost2010PropOp30
 70
     1
102
RTVSPost2010Prop31
280
     0
102
RTVSPost2010PropOp31
 70
     1
102
RTVSPost2010Prop32
280
     0
102
RTVSPost2010PropOp32
 70
     1
102
RTVSPost2010Prop33
280
     0
102
RTVSPost2010PropOp33
 70
     1
102
RTVSPost2010Prop34
280
     0
102
RTVSPost2010PropOp34
 70
     1
102
RTVSPost2010Prop35
280
     0
102
RTVSPost2010PropOp35
 70
     1
102
RTVSPost2010Prop36
280
     0
102
RTVSPost2010PropOp36
 70
     1
102
RTVSPost2010Prop37
 90
       50
102
RTVSPost2010PropOp37
 70
     1
102
RTVSPost2010Prop38
140
0.0
102
RTVSPost2010PropOp38
 70
     1
102
RTVSPost2010Prop39
140
1.0
102
RTVSPost2010PropOp39
 70
     1
102
RTVSPost2010Prop40
 90
        0
102
RTVSPost2010PropOp40
 70
     1
102
RTVSPost2010Prop41ColorIndex
 90
       18
102
RTVSPost2010Prop41ColorRGB
 90
        0
102
RTVSPost2010PropOp41
 70
     1
102
RTVSPost2010Prop42
 90
       50
102
RTVSPost2010PropOp42
 70
     1
102
RTVSPost2010Prop43
 90
        3
102
RTVSPost2010PropOp43
 70
     1
102
RTVSPost2010Prop44ColorIndex
 90
        5
102
RTVSPost2010Prop44ColorRGB
 90
      255
102
RTVSPost2010PropOp44
 70
     1
102
RTVSPost2010Prop45
280
     0
102
RTVSPost2010PropOp45
 70
     1
102
RTVSPost2010Prop46
 90
       50
102
RTVSPost2010PropOp46
 70
     1
102
RTVSPost2010Prop47
 90
       50
102
RTVSPost2010PropOp47
 70
     1
102
RTVSPost2010Prop48
 90
       50
102
RTVSPost2010PropOp48
 70
     1
102
RTVSPost2010Prop49
280
     0
102
RTVSPost2010PropOp49
 70
     1
102
RTVSPost2010Prop50
 90
       50
102
RTVSPost2010PropOp50
 70
     1
102
RTVSPost2010Prop51ColorIndex
 90
      256
102
RTVSPost2010Prop51ColorRGB
 90
-16777216
102
RTVSPost2010PropOp51
 70
     0
102
RTVSPost2010Prop52
140
1.0
102
RTVSPost2010PropOp52
 70
     0
102
RTVSPost2010Prop53
 90
        2
102
RTVSPost2010PropOp53
 70
     1
102
RTVSPost2010Prop54
  1
strokes_ogs.tif
102
RTVSPost2010PropOp54
 70
     1
102
RTVSPost2010Prop55
280
     0
102
RTVSPost2010PropOp55
 70
     1
102
RTVSPost2010Prop56
140
1.0
102
RTVSPost2010PropOp56
 70
     1
102
RTVSPost2010Prop57
140
1.0
102
RTVSPost2010PropOp57
 70
     1
  0
XRECORD
  5
82F
102
{ACAD_REACTORS
330
82E
102
}
330
82E
100
AcDbXrecord
280
     1
102
RTVSPropertyOp0
 70
     1
102
RTVSPropertyOp1
 70
     1
102
RTVSPropertyOp2
 70
     1
102
RTVSPropertyOp3
 70
     1
102
RTVSPropertyOp4
 70
     1
102
RTVSPropertyOp5
 70
     1
102
RTVSPropertyOp6
 70
     1
102
RTVSPropertyOp7
 70
     1
102
RTVSPropertyOp8
 70
     1
102
RTVSPropertyOp9
 70
     1
102
RTVSPropertyOp10
 70
     1
102
RTVSPropertyOp11
 70
     1
102
RTVSPropertyOp12
 70
     1
102
RTVSPropertyOp13
 70
     1
102
RTVSPropertyOp14
 70
     1
102
RTVSPropertyOp15
 70
     1
102
RTVSPropertyOp16
 70
     1
102
RTVSPropertyOp17
 70
     1
102
RTVSPropertyOp18
 70
     1
102
RTVSPropertyOp19
 70
     1
102
RTVSPropertyOp20
 70
     1
102
RTVSPropertyOp21
 70
     1
102
RTVSPropertyOp22
 70
     1
102
RTVSPropertyOp23
 70
     1
102
RTVSPropertyOp24
 70
     1
102
RTVSPropertyOp25
 70
     1
102
RTVSPropertyOp26
 70
     1
102
RTVSPropertyOp27
 70
     1
102
RTVSPropertyOp28
 70
     1
102
RTVSPropertyOp29
 70
     1
102
RTVSPropertyOp30
 70
     1
102
RTVSPropertyOp31
 70
     1
102
RTVSPropertyOp32
 70
     1
102
RTVSPropertyOp33
 70
     1
102
RTVSPropertyOp34
 70
     1
102
RTVSPropertyOp35
 70
     1
102
RTVSPropertyOp36
 70
     1
102
RTVSPropertyOp37
 70
     1
102
RTVSPropertyOp38
 70
     1
102
RTVSPropertyOp39
 70
     1
102
RTVSPropertyOp40
 70
     1
102
RTVSPropertyOp41
 70
     1
102
RTVSPropertyOp42
 70
     1
102
RTVSPropertyOp43
 70
     1
102
RTVSPropertyOp44
 70
     1
102
RTVSPropertyOp45
 70
     1
102
RTVSPropertyOp46
 70
     1
102
RTVSPropertyOp47
 70
     1
102
RTVSPropertyOp48
 70
     1
102
RTVSPropertyOp49
 70
     1
102
RTVSPropertyOp50
 70
     1
102
RTVSPropertyOp51
 70
     0
102
RTVSPropertyOp52
 70
     0
102
RTVSPropertyOp53
 70
     1
102
RTVSPropertyOp54
 70
     1
102
RTVSPropertyOp55
 70
     1
102
RTVSPropertyOp56
 70
     1
102
RTVSPropertyOp57
 70
     1
102
RTVSPost2010Prop28
280
     0
102
RTVSPost2010PropOp28
 70
     1
102
RTVSPost2010Prop29
280
     1
102
RTVSPost2010PropOp29
 70
     1
102
RTVSPost2010Prop30
280
     1
102
RTVSPost2010PropOp30
 70
     1
102
RTVSPost2010Prop31
280
     0
102
RTVSPost2010PropOp31
 70
     1
102
RTVSPost2010Prop32
280
     0
102
RTVSPost2010PropOp32
 70
     1
102
RTVSPost2010Prop33
280
     0
102
RTVSPost2010PropOp33
 70
     1
102
RTVSPost2010Prop34
280
     0
102
RTVSPost2010PropOp34
 70
     1
102
RTVSPost2010Prop35
280
     0
102
RTVSPost2010PropOp35
 70
     1
102
RTVSPost2010Prop36
280
     0
102
RTVSPost2010PropOp36
 70
     1
102
RTVSPost2010Prop37
 90
       50
102
RTVSPost2010PropOp37
 70
     1
102
RTVSPost2010Prop38
140
0.0
102
RTVSPost2010PropOp38
 70
     1
102
RTVSPost2010Prop39
140
1.0
102
RTVSPost2010PropOp39
 70
     1
102
RTVSPost2010Prop40
 90
        0
102
RTVSPost2010PropOp40
 70
     1
102
RTVSPost2010Prop41ColorIndex
 90
       18
102
RTVSPost2010Prop41ColorRGB
 90
        0
102
RTVSPost2010PropOp41
 70
     1
102
RTVSPost2010Prop42
 90
       50
102
RTVSPost2010PropOp42
 70
     1
102
RTVSPost2010Prop43
 90
        3
102
RTVSPost2010PropOp43
 70
     1
102
RTVSPost2010Prop44ColorIndex
 90
        5
102
RTVSPost2010Prop44ColorRGB
 90
      255
102
RTVSPost2010PropOp44
 70
     1
102
RTVSPost2010Prop45
280
     0
102
RTVSPost2010PropOp45
 70
     1
102
RTVSPost2010Prop46
 90
       50
102
RTVSPost2010PropOp46
 70
     1
102
RTVSPost2010Prop47
 90
       50
102
RTVSPost2010PropOp47
 70
     1
102
RTVSPost2010Prop48
 90
       50
102
RTVSPost2010PropOp48
 70
     1
102
RTVSPost2010Prop49
280
     0
102
RTVSPost2010PropOp49
 70
     1
102
RTVSPost2010Prop50
 90
       50
102
RTVSPost2010PropOp50
 70
     1
102
RTVSPost2010Prop51ColorIndex
 90
      256
102
RTVSPost2010Prop51ColorRGB
 90
-16777216
102
RTVSPost2010PropOp51
 70
     0
102
RTVSPost2010Prop52
140
1.0
102
RTVSPost2010PropOp52
 70
     0
102
RTVSPost2010Prop53
 90
        2
102
RTVSPost2010PropOp53
 70
     1
102
RTVSPost2010Prop54
  1
strokes_ogs.tif
102
RTVSPost2010PropOp54
 70
     1
102
RTVSPost2010Prop55
280
     0
102
RTVSPost2010PropOp55
 70
     1
102
RTVSPost2010Prop56
140
1.0
102
RTVSPost2010PropOp56
 70
     1
102
RTVSPost2010Prop57
140
1.0
102
RTVSPost2010PropOp57
 70
     1
  0
XRECORD
  5
823
102
{ACAD_REACTORS
330
822
102
}
330
822
100
AcDbXrecord
280
     1
102
RTVSPropertyOp0
 70
     1
102
RTVSPropertyOp1
 70
     1
102
RTVSPropertyOp2
 70
     1
102
RTVSPropertyOp3
 70
     1
102
RTVSPropertyOp4
 70
     1
102
RTVSPropertyOp5
 70
     1
102
RTVSPropertyOp6
 70
     1
102
RTVSPropertyOp7
 70
     1
102
RTVSPropertyOp8
 70
     1
102
RTVSPropertyOp9
 70
     1
102
RTVSPropertyOp10
 70
     1
102
RTVSPropertyOp11
 70
     1
102
RTVSPropertyOp12
 70
     1
102
RTVSPropertyOp13
 70
     1
102
RTVSPropertyOp14
 70
     1
102
RTVSPropertyOp15
 70
     1
102
RTVSPropertyOp16
 70
     1
102
RTVSPropertyOp17
 70
     1
102
RTVSPropertyOp18
 70
     1
102
RTVSPropertyOp19
 70
     1
102
RTVSPropertyOp20
 70
     1
102
RTVSPropertyOp21
 70
     1
102
RTVSPropertyOp22
 70
     1
102
RTVSPropertyOp23
 70
     1
102
RTVSPropertyOp24
 70
     1
102
RTVSPropertyOp25
 70
     1
102
RTVSPropertyOp26
 70
     1
102
RTVSPropertyOp27
 70
     1
102
RTVSPropertyOp28
 70
     1
102
RTVSPropertyOp29
 70
     1
102
RTVSPropertyOp30
 70
     1
102
RTVSPropertyOp31
 70
     1
102
RTVSPropertyOp32
 70
     1
102
RTVSPropertyOp33
 70
     1
102
RTVSPropertyOp34
 70
     1
102
RTVSPropertyOp35
 70
     1
102
RTVSPropertyOp36
 70
     1
102
RTVSPropertyOp37
 70
     1
102
RTVSPropertyOp38
 70
     1
102
RTVSPropertyOp39
 70
     1
102
RTVSPropertyOp40
 70
     1
102
RTVSPropertyOp41
 70
     1
102
RTVSPropertyOp42
 70
     1
102
RTVSPropertyOp43
 70
     1
102
RTVSPropertyOp44
 70
     1
102
RTVSPropertyOp45
 70
     1
102
RTVSPropertyOp46
 70
     1
102
RTVSPropertyOp47
 70
     1
102
RTVSPropertyOp48
 70
     1
102
RTVSPropertyOp49
 70
     1
102
RTVSPropertyOp50
 70
     1
102
RTVSPropertyOp51
 70
     0
102
RTVSPropertyOp52
 70
     0
102
RTVSPropertyOp53
 70
     1
102
RTVSPropertyOp54
 70
     1
102
RTVSPropertyOp55
 70
     1
102
RTVSPropertyOp56
 70
     1
102
RTVSPropertyOp57
 70
     1
102
RTVSPost2010Prop28
280
     0
102
RTVSPost2010PropOp28
 70
     1
102
RTVSPost2010Prop29
280
     1
102
RTVSPost2010PropOp29
 70
     1
102
RTVSPost2010Prop30
280
     1
102
RTVSPost2010PropOp30
 70
     1
102
RTVSPost2010Prop31
280
     0
102
RTVSPost2010PropOp31
 70
     1
102
RTVSPost2010Prop32
280
     0
102
RTVSPost2010PropOp32
 70
     1
102
RTVSPost2010Prop33
280
     0
102
RTVSPost2010PropOp33
 70
     1
102
RTVSPost2010Prop34
280
     0
102
RTVSPost2010PropOp34
 70
     1
102
RTVSPost2010Prop35
280
     0
102
RTVSPost2010PropOp35
 70
     1
102
RTVSPost2010Prop36
280
     0
102
RTVSPost2010PropOp36
 70
     1
102
RTVSPost2010Prop37
 90
       50
102
RTVSPost2010PropOp37
 70
     1
102
RTVSPost2010Prop38
140
0.0
102
RTVSPost2010PropOp38
 70
     1
102
RTVSPost2010Prop39
140
1.0
102
RTVSPost2010PropOp39
 70
     1
102
RTVSPost2010Prop40
 90
        0
102
RTVSPost2010PropOp40
 70
     1
102
RTVSPost2010Prop41ColorIndex
 90
       18
102
RTVSPost2010Prop41ColorRGB
 90
        0
102
RTVSPost2010PropOp41
 70
     1
102
RTVSPost2010Prop42
 90
       50
102
RTVSPost2010PropOp42
 70
     1
102
RTVSPost2010Prop43
 90
        3
102
RTVSPost2010PropOp43
 70
     1
102
RTVSPost2010Prop44ColorIndex
 90
        5
102
RTVSPost2010Prop44ColorRGB
 90
      255
102
RTVSPost2010PropOp44
 70
     1
102
RTVSPost2010Prop45
280
     0
102
RTVSPost2010PropOp45
 70
     1
102
RTVSPost2010Prop46
 90
       50
102
RTVSPost2010PropOp46
 70
     1
102
RTVSPost2010Prop47
 90
       50
102
RTVSPost2010PropOp47
 70
     1
102
RTVSPost2010Prop48
 90
       50
102
RTVSPost2010PropOp48
 70
     1
102
RTVSPost2010Prop49
280
     0
102
RTVSPost2010PropOp49
 70
     1
102
RTVSPost2010Prop50
 90
       50
102
RTVSPost2010PropOp50
 70
     1
102
RTVSPost2010Prop51ColorIndex
 90
      256
102
RTVSPost2010Prop51ColorRGB
 90
-16777216
102
RTVSPost2010PropOp51
 70
     0
102
RTVSPost2010Prop52
140
1.0
102
RTVSPost2010PropOp52
 70
     0
102
RTVSPost2010Prop53
 90
        2
102
RTVSPost2010PropOp53
 70
     1
102
RTVSPost2010Prop54
  1
strokes_ogs.tif
102
RTVSPost2010PropOp54
 70
     1
102
RTVSPost2010Prop55
280
     0
102
RTVSPost2010PropOp55
 70
     1
102
RTVSPost2010Prop56
140
1.0
102
RTVSPost2010PropOp56
 70
     1
102
RTVSPost2010Prop57
140
1.0
102
RTVSPost2010PropOp57
 70
     1
  0
XRECORD
  5
825
102
{ACAD_REACTORS
330
824
102
}
330
824
100
AcDbXrecord
280
     1
102
RTVSPropertyOp0
 70
     1
102
RTVSPropertyOp1
 70
     1
102
RTVSPropertyOp2
 70
     1
102
RTVSPropertyOp3
 70
     1
102
RTVSPropertyOp4
 70
     1
102
RTVSPropertyOp5
 70
     1
102
RTVSPropertyOp6
 70
     1
102
RTVSPropertyOp7
 70
     1
102
RTVSPropertyOp8
 70
     1
102
RTVSPropertyOp9
 70
     1
102
RTVSPropertyOp10
 70
     1
102
RTVSPropertyOp11
 70
     1
102
RTVSPropertyOp12
 70
     1
102
RTVSPropertyOp13
 70
     1
102
RTVSPropertyOp14
 70
     1
102
RTVSPropertyOp15
 70
     1
102
RTVSPropertyOp16
 70
     1
102
RTVSPropertyOp17
 70
     1
102
RTVSPropertyOp18
 70
     1
102
RTVSPropertyOp19
 70
     1
102
RTVSPropertyOp20
 70
     1
102
RTVSPropertyOp21
 70
     1
102
RTVSPropertyOp22
 70
     1
102
RTVSPropertyOp23
 70
     1
102
RTVSPropertyOp24
 70
     1
102
RTVSPropertyOp25
 70
     1
102
RTVSPropertyOp26
 70
     1
102
RTVSPropertyOp27
 70
     1
102
RTVSPropertyOp28
 70
     1
102
RTVSPropertyOp29
 70
     1
102
RTVSPropertyOp30
 70
     1
102
RTVSPropertyOp31
 70
     1
102
RTVSPropertyOp32
 70
     1
102
RTVSPropertyOp33
 70
     1
102
RTVSPropertyOp34
 70
     1
102
RTVSPropertyOp35
 70
     1
102
RTVSPropertyOp36
 70
     1
102
RTVSPropertyOp37
 70
     1
102
RTVSPropertyOp38
 70
     1
102
RTVSPropertyOp39
 70
     1
102
RTVSPropertyOp40
 70
     1
102
RTVSPropertyOp41
 70
     1
102
RTVSPropertyOp42
 70
     1
102
RTVSPropertyOp43
 70
     1
102
RTVSPropertyOp44
 70
     1
102
RTVSPropertyOp45
 70
     1
102
RTVSPropertyOp46
 70
     1
102
RTVSPropertyOp47
 70
     1
102
RTVSPropertyOp48
 70
     1
102
RTVSPropertyOp49
 70
     1
102
RTVSPropertyOp50
 70
     1
102
RTVSPropertyOp51
 70
     0
102
RTVSPropertyOp52
 70
     0
102
RTVSPropertyOp53
 70
     1
102
RTVSPropertyOp54
 70
     1
102
RTVSPropertyOp55
 70
     1
102
RTVSPropertyOp56
 70
     1
102
RTVSPropertyOp57
 70
     1
102
RTVSPost2010Prop28
280
     0
102
RTVSPost2010PropOp28
 70
     1
102
RTVSPost2010Prop29
280
     1
102
RTVSPost2010PropOp29
 70
     1
102
RTVSPost2010Prop30
280
     1
102
RTVSPost2010PropOp30
 70
     1
102
RTVSPost2010Prop31
280
     0
102
RTVSPost2010PropOp31
 70
     1
102
RTVSPost2010Prop32
280
     0
102
RTVSPost2010PropOp32
 70
     1
102
RTVSPost2010Prop33
280
     0
102
RTVSPost2010PropOp33
 70
     1
102
RTVSPost2010Prop34
280
     0
102
RTVSPost2010PropOp34
 70
     1
102
RTVSPost2010Prop35
280
     0
102
RTVSPost2010PropOp35
 70
     1
102
RTVSPost2010Prop36
280
     0
102
RTVSPost2010PropOp36
 70
     1
102
RTVSPost2010Prop37
 90
       50
102
RTVSPost2010PropOp37
 70
     1
102
RTVSPost2010Prop38
140
0.0
102
RTVSPost2010PropOp38
 70
     1
102
RTVSPost2010Prop39
140
1.0
102
RTVSPost2010PropOp39
 70
     1
102
RTVSPost2010Prop40
 90
        0
102
RTVSPost2010PropOp40
 70
     1
102
RTVSPost2010Prop41ColorIndex
 90
       18
102
RTVSPost2010Prop41ColorRGB
 90
        0
102
RTVSPost2010PropOp41
 70
     1
102
RTVSPost2010Prop42
 90
       50
102
RTVSPost2010PropOp42
 70
     1
102
RTVSPost2010Prop43
 90
        3
102
RTVSPost2010PropOp43
 70
     1
102
RTVSPost2010Prop44ColorIndex
 90
        5
102
RTVSPost2010Prop44ColorRGB
 90
      255
102
RTVSPost2010PropOp44
 70
     1
102
RTVSPost2010Prop45
280
     0
102
RTVSPost2010PropOp45
 70
     1
102
RTVSPost2010Prop46
 90
       50
102
RTVSPost2010PropOp46
 70
     1
102
RTVSPost2010Prop47
 90
       50
102
RTVSPost2010PropOp47
 70
     1
102
RTVSPost2010Prop48
 90
       50
102
RTVSPost2010PropOp48
 70
     1
102
RTVSPost2010Prop49
280
     0
102
RTVSPost2010PropOp49
 70
     1
102
RTVSPost2010Prop50
 90
       50
102
RTVSPost2010PropOp50
 70
     1
102
RTVSPost2010Prop51ColorIndex
 90
      256
102
RTVSPost2010Prop51ColorRGB
 90
-16777216
102
RTVSPost2010PropOp51
 70
     0
102
RTVSPost2010Prop52
140
1.0
102
RTVSPost2010PropOp52
 70
     0
102
RTVSPost2010Prop53
 90
        2
102
RTVSPost2010PropOp53
 70
     1
102
RTVSPost2010Prop54
  1
strokes_ogs.tif
102
RTVSPost2010PropOp54
 70
     1
102
RTVSPost2010Prop55
280
     0
102
RTVSPost2010PropOp55
 70
     1
102
RTVSPost2010Prop56
140
1.0
102
RTVSPost2010PropOp56
 70
     1
102
RTVSPost2010Prop57
140
1.0
102
RTVSPost2010PropOp57
 70
     1
  0
XRECORD
  5
839
102
{ACAD_REACTORS
330
838
102
}
330
838
100
AcDbXrecord
280
     1
102
RTVSPropertyOp0
 70
     0
102
RTVSPropertyOp1
 70
     0
102
RTVSPropertyOp2
 70
     0
102
RTVSPropertyOp3
 70
     0
102
RTVSPropertyOp4
 70
     0
102
RTVSPropertyOp5
 70
     0
102
RTVSPropertyOp6
 70
     0
102
RTVSPropertyOp7
 70
     0
102
RTVSPropertyOp8
 70
     0
102
RTVSPropertyOp9
 70
     0
102
RTVSPropertyOp10
 70
     0
102
RTVSPropertyOp11
 70
     0
102
RTVSPropertyOp12
 70
     0
102
RTVSPropertyOp13
 70
     0
102
RTVSPropertyOp14
 70
     0
102
RTVSPropertyOp15
 70
     0
102
RTVSPropertyOp16
 70
     0
102
RTVSPropertyOp17
 70
     0
102
RTVSPropertyOp18
 70
     0
102
RTVSPropertyOp19
 70
     0
102
RTVSPropertyOp20
 70
     0
102
RTVSPropertyOp21
 70
     0
102
RTVSPropertyOp22
 70
     0
102
RTVSPropertyOp23
 70
     0
102
RTVSPropertyOp24
 70
     0
102
RTVSPropertyOp25
 70
     0
102
RTVSPropertyOp26
 70
     0
102
RTVSPropertyOp27
 70
     0
102
RTVSPropertyOp28
 70
     1
102
RTVSPropertyOp29
 70
     1
102
RTVSPropertyOp30
 70
     1
102
RTVSPropertyOp31
 70
     1
102
RTVSPropertyOp32
 70
     1
102
RTVSPropertyOp33
 70
     1
102
RTVSPropertyOp34
 70
     1
102
RTVSPropertyOp35
 70
     1
102
RTVSPropertyOp36
 70
     1
102
RTVSPropertyOp37
 70
     1
102
RTVSPropertyOp38
 70
     1
102
RTVSPropertyOp39
 70
     1
102
RTVSPropertyOp40
 70
     1
102
RTVSPropertyOp41
 70
     1
102
RTVSPropertyOp42
 70
     1
102
RTVSPropertyOp43
 70
     1
102
RTVSPropertyOp44
 70
     1
102
RTVSPropertyOp45
 70
     1
102
RTVSPropertyOp46
 70
     1
102
RTVSPropertyOp47
 70
     1
102
RTVSPropertyOp48
 70
     1
102
RTVSPropertyOp49
 70
     1
102
RTVSPropertyOp50
 70
     1
102
RTVSPropertyOp51
 70
     0
102
RTVSPropertyOp52
 70
     0
102
RTVSPropertyOp53
 70
     1
102
RTVSPropertyOp54
 70
     1
102
RTVSPropertyOp55
 70
     1
102
RTVSPropertyOp56
 70
     1
102
RTVSPropertyOp57
 70
     1
102
RTVSPost2010Prop28
280
     0
102
RTVSPost2010PropOp28
 70
     1
102
RTVSPost2010Prop29
280
     1
102
RTVSPost2010PropOp29
 70
     1
102
RTVSPost2010Prop30
280
     1
102
RTVSPost2010PropOp30
 70
     1
102
RTVSPost2010Prop31
280
     0
102
RTVSPost2010PropOp31
 70
     1
102
RTVSPost2010Prop32
280
     0
102
RTVSPost2010PropOp32
 70
     1
102
RTVSPost2010Prop33
280
     0
102
RTVSPost2010PropOp33
 70
     1
102
RTVSPost2010Prop34
280
     0
102
RTVSPost2010PropOp34
 70
     1
102
RTVSPost2010Prop35
280
     0
102
RTVSPost2010PropOp35
 70
     1
102
RTVSPost2010Prop36
280
     0
102
RTVSPost2010PropOp36
 70
     1
102
RTVSPost2010Prop37
 90
       50
102
RTVSPost2010PropOp37
 70
     1
102
RTVSPost2010Prop38
140
0.0
102
RTVSPost2010PropOp38
 70
     1
102
RTVSPost2010Prop39
140
1.0
102
RTVSPost2010PropOp39
 70
     1
102
RTVSPost2010Prop40
 90
        0
102
RTVSPost2010PropOp40
 70
     1
102
RTVSPost2010Prop41ColorIndex
 90
       18
102
RTVSPost2010Prop41ColorRGB
 90
        0
102
RTVSPost2010PropOp41
 70
     1
102
RTVSPost2010Prop42
 90
       50
102
RTVSPost2010PropOp42
 70
     1
102
RTVSPost2010Prop43
 90
        3
102
RTVSPost2010PropOp43
 70
     1
102
RTVSPost2010Prop44ColorIndex
 90
        5
102
RTVSPost2010Prop44ColorRGB
 90
      255
102
RTVSPost2010PropOp44
 70
     1
102
RTVSPost2010Prop45
280
     0
102
RTVSPost2010PropOp45
 70
     1
102
RTVSPost2010Prop46
 90
       50
102
RTVSPost2010PropOp46
 70
     1
102
RTVSPost2010Prop47
 90
       50
102
RTVSPost2010PropOp47
 70
     1
102
RTVSPost2010Prop48
 90
       50
102
RTVSPost2010PropOp48
 70
     1
102
RTVSPost2010Prop49
280
     0
102
RTVSPost2010PropOp49
 70
     1
102
RTVSPost2010Prop50
 90
       50
102
RTVSPost2010PropOp50
 70
     1
102
RTVSPost2010Prop51ColorIndex
 90
      256
102
RTVSPost2010Prop51ColorRGB
 90
-16777216
102
RTVSPost2010PropOp51
 70
     0
102
RTVSPost2010Prop52
140
1.0
102
RTVSPost2010PropOp52
 70
     0
102
RTVSPost2010Prop53
 90
        2
102
RTVSPost2010PropOp53
 70
     1
102
RTVSPost2010Prop54
  1
strokes_ogs.tif
102
RTVSPost2010PropOp54
 70
     1
102
RTVSPost2010Prop55
280
     0
102
RTVSPost2010PropOp55
 70
     1
102
RTVSPost2010Prop56
140
1.0
102
RTVSPost2010PropOp56
 70
     1
102
RTVSPost2010Prop57
140
1.0
102
RTVSPost2010PropOp57
 70
     1
  0
XRECORD
  5
82D
102
{ACAD_REACTORS
330
82C
102
}
330
82C
100
AcDbXrecord
280
     1
102
RTVSPropertyOp0
 70
     1
102
RTVSPropertyOp1
 70
     1
102
RTVSPropertyOp2
 70
     1
102
RTVSPropertyOp3
 70
     1
102
RTVSPropertyOp4
 70
     1
102
RTVSPropertyOp5
 70
     1
102
RTVSPropertyOp6
 70
     1
102
RTVSPropertyOp7
 70
     1
102
RTVSPropertyOp8
 70
     1
102
RTVSPropertyOp9
 70
     1
102
RTVSPropertyOp10
 70
     1
102
RTVSPropertyOp11
 70
     1
102
RTVSPropertyOp12
 70
     1
102
RTVSPropertyOp13
 70
     1
102
RTVSPropertyOp14
 70
     1
102
RTVSPropertyOp15
 70
     1
102
RTVSPropertyOp16
 70
     1
102
RTVSPropertyOp17
 70
     1
102
RTVSPropertyOp18
 70
     1
102
RTVSPropertyOp19
 70
     1
102
RTVSPropertyOp20
 70
     1
102
RTVSPropertyOp21
 70
     1
102
RTVSPropertyOp22
 70
     1
102
RTVSPropertyOp23
 70
     1
102
RTVSPropertyOp24
 70
     1
102
RTVSPropertyOp25
 70
     1
102
RTVSPropertyOp26
 70
     1
102
RTVSPropertyOp27
 70
     1
102
RTVSPropertyOp28
 70
     1
102
RTVSPropertyOp29
 70
     1
102
RTVSPropertyOp30
 70
     1
102
RTVSPropertyOp31
 70
     1
102
RTVSPropertyOp32
 70
     1
102
RTVSPropertyOp33
 70
     1
102
RTVSPropertyOp34
 70
     1
102
RTVSPropertyOp35
 70
     1
102
RTVSPropertyOp36
 70
     1
102
RTVSPropertyOp37
 70
     1
102
RTVSPropertyOp38
 70
     1
102
RTVSPropertyOp39
 70
     1
102
RTVSPropertyOp40
 70
     1
102
RTVSPropertyOp41
 70
     1
102
RTVSPropertyOp42
 70
     1
102
RTVSPropertyOp43
 70
     1
102
RTVSPropertyOp44
 70
     1
102
RTVSPropertyOp45
 70
     1
102
RTVSPropertyOp46
 70
     1
102
RTVSPropertyOp47
 70
     1
102
RTVSPropertyOp48
 70
     1
102
RTVSPropertyOp49
 70
     1
102
RTVSPropertyOp50
 70
     1
102
RTVSPropertyOp51
 70
     0
102
RTVSPropertyOp52
 70
     0
102
RTVSPropertyOp53
 70
     1
102
RTVSPropertyOp54
 70
     1
102
RTVSPropertyOp55
 70
     1
102
RTVSPropertyOp56
 70
     1
102
RTVSPropertyOp57
 70
     1
102
RTVSPost2010Prop28
280
     0
102
RTVSPost2010PropOp28
 70
     1
102
RTVSPost2010Prop29
280
     1
102
RTVSPost2010PropOp29
 70
     1
102
RTVSPost2010Prop30
280
     1
102
RTVSPost2010PropOp30
 70
     1
102
RTVSPost2010Prop31
280
     0
102
RTVSPost2010PropOp31
 70
     1
102
RTVSPost2010Prop32
280
     0
102
RTVSPost2010PropOp32
 70
     1
102
RTVSPost2010Prop33
280
     0
102
RTVSPost2010PropOp33
 70
     1
102
RTVSPost2010Prop34
280
     0
102
RTVSPost2010PropOp34
 70
     1
102
RTVSPost2010Prop35
280
     0
102
RTVSPost2010PropOp35
 70
     1
102
RTVSPost2010Prop36
280
     0
102
RTVSPost2010PropOp36
 70
     1
102
RTVSPost2010Prop37
 90
       50
102
RTVSPost2010PropOp37
 70
     1
102
RTVSPost2010Prop38
140
0.0
102
RTVSPost2010PropOp38
 70
     1
102
RTVSPost2010Prop39
140
1.0
102
RTVSPost2010PropOp39
 70
     1
102
RTVSPost2010Prop40
 90
        0
102
RTVSPost2010PropOp40
 70
     1
102
RTVSPost2010Prop41ColorIndex
 90
       18
102
RTVSPost2010Prop41ColorRGB
 90
        0
102
RTVSPost2010PropOp41
 70
     1
102
RTVSPost2010Prop42
 90
       50
102
RTVSPost2010PropOp42
 70
     1
102
RTVSPost2010Prop43
 90
        3
102
RTVSPost2010PropOp43
 70
     1
102
RTVSPost2010Prop44ColorIndex
 90
        5
102
RTVSPost2010Prop44ColorRGB
 90
      255
102
RTVSPost2010PropOp44
 70
     1
102
RTVSPost2010Prop45
280
     0
102
RTVSPost2010PropOp45
 70
     1
102
RTVSPost2010Prop46
 90
       50
102
RTVSPost2010PropOp46
 70
     1
102
RTVSPost2010Prop47
 90
       50
102
RTVSPost2010PropOp47
 70
     1
102
RTVSPost2010Prop48
 90
       50
102
RTVSPost2010PropOp48
 70
     1
102
RTVSPost2010Prop49
280
     0
102
RTVSPost2010PropOp49
 70
     1
102
RTVSPost2010Prop50
 90
       50
102
RTVSPost2010PropOp50
 70
     1
102
RTVSPost2010Prop51ColorIndex
 90
      256
102
RTVSPost2010Prop51ColorRGB
 90
-16777216
102
RTVSPost2010PropOp51
 70
     0
102
RTVSPost2010Prop52
140
1.0
102
RTVSPost2010PropOp52
 70
     0
102
RTVSPost2010Prop53
 90
        2
102
RTVSPost2010PropOp53
 70
     1
102
RTVSPost2010Prop54
  1
strokes_ogs.tif
102
RTVSPost2010PropOp54
 70
     1
102
RTVSPost2010Prop55
280
     0
102
RTVSPost2010PropOp55
 70
     1
102
RTVSPost2010Prop56
140
1.0
102
RTVSPost2010PropOp56
 70
     1
102
RTVSPost2010Prop57
140
1.0
102
RTVSPost2010PropOp57
 70
     1
  0
XRECORD
  5
811
102
{ACAD_REACTORS
330
810
102
}
330
810
100
AcDbXrecord
280
     1
102
RTVSPropertyOp0
 70
     1
102
RTVSPropertyOp1
 70
     1
102
RTVSPropertyOp2
 70
     1
102
RTVSPropertyOp3
 70
     1
102
RTVSPropertyOp4
 70
     1
102
RTVSPropertyOp5
 70
     1
102
RTVSPropertyOp6
 70
     1
102
RTVSPropertyOp7
 70
     1
102
RTVSPropertyOp8
 70
     1
102
RTVSPropertyOp9
 70
     1
102
RTVSPropertyOp10
 70
     1
102
RTVSPropertyOp11
 70
     1
102
RTVSPropertyOp12
 70
     1
102
RTVSPropertyOp13
 70
     1
102
RTVSPropertyOp14
 70
     1
102
RTVSPropertyOp15
 70
     1
102
RTVSPropertyOp16
 70
     1
102
RTVSPropertyOp17
 70
     1
102
RTVSPropertyOp18
 70
     1
102
RTVSPropertyOp19
 70
     1
102
RTVSPropertyOp20
 70
     1
102
RTVSPropertyOp21
 70
     1
102
RTVSPropertyOp22
 70
     1
102
RTVSPropertyOp23
 70
     1
102
RTVSPropertyOp24
 70
     1
102
RTVSPropertyOp25
 70
     1
102
RTVSPropertyOp26
 70
     1
102
RTVSPropertyOp27
 70
     1
102
RTVSPropertyOp28
 70
     1
102
RTVSPropertyOp29
 70
     1
102
RTVSPropertyOp30
 70
     1
102
RTVSPropertyOp31
 70
     1
102
RTVSPropertyOp32
 70
     1
102
RTVSPropertyOp33
 70
     1
102
RTVSPropertyOp34
 70
     1
102
RTVSPropertyOp35
 70
     1
102
RTVSPropertyOp36
 70
     1
102
RTVSPropertyOp37
 70
     1
102
RTVSPropertyOp38
 70
     1
102
RTVSPropertyOp39
 70
     1
102
RTVSPropertyOp40
 70
     1
102
RTVSPropertyOp41
 70
     1
102
RTVSPropertyOp42
 70
     1
102
RTVSPropertyOp43
 70
     1
102
RTVSPropertyOp44
 70
     1
102
RTVSPropertyOp45
 70
     1
102
RTVSPropertyOp46
 70
     1
102
RTVSPropertyOp47
 70
     1
102
RTVSPropertyOp48
 70
     1
102
RTVSPropertyOp49
 70
     1
102
RTVSPropertyOp50
 70
     1
102
RTVSPropertyOp51
 70
     0
102
RTVSPropertyOp52
 70
     0
102
RTVSPropertyOp53
 70
     1
102
RTVSPropertyOp54
 70
     1
102
RTVSPropertyOp55
 70
     1
102
RTVSPropertyOp56
 70
     1
102
RTVSPropertyOp57
 70
     1
102
RTVSPost2010Prop28
280
     0
102
RTVSPost2010PropOp28
 70
     1
102
RTVSPost2010Prop29
280
     1
102
RTVSPost2010PropOp29
 70
     1
102
RTVSPost2010Prop30
280
     1
102
RTVSPost2010PropOp30
 70
     1
102
RTVSPost2010Prop31
280
     0
102
RTVSPost2010PropOp31
 70
     1
102
RTVSPost2010Prop32
280
     0
102
RTVSPost2010PropOp32
 70
     1
102
RTVSPost2010Prop33
280
     0
102
RTVSPost2010PropOp33
 70
     1
102
RTVSPost2010Prop34
280
     0
102
RTVSPost2010PropOp34
 70
     1
102
RTVSPost2010Prop35
280
     0
102
RTVSPost2010PropOp35
 70
     1
102
RTVSPost2010Prop36
280
     0
102
RTVSPost2010PropOp36
 70
     1
102
RTVSPost2010Prop37
 90
       50
102
RTVSPost2010PropOp37
 70
     1
102
RTVSPost2010Prop38
140
0.0
102
RTVSPost2010PropOp38
 70
     1
102
RTVSPost2010Prop39
140
1.0
102
RTVSPost2010PropOp39
 70
     1
102
RTVSPost2010Prop40
 90
        0
102
RTVSPost2010PropOp40
 70
     1
102
RTVSPost2010Prop41ColorIndex
 90
       18
102
RTVSPost2010Prop41ColorRGB
 90
        0
102
RTVSPost2010PropOp41
 70
     1
102
RTVSPost2010Prop42
 90
       50
102
RTVSPost2010PropOp42
 70
     1
102
RTVSPost2010Prop43
 90
        3
102
RTVSPost2010PropOp43
 70
     1
102
RTVSPost2010Prop44ColorIndex
 90
        5
102
RTVSPost2010Prop44ColorRGB
 90
      255
102
RTVSPost2010PropOp44
 70
     1
102
RTVSPost2010Prop45
280
     0
102
RTVSPost2010PropOp45
 70
     1
102
RTVSPost2010Prop46
 90
       50
102
RTVSPost2010PropOp46
 70
     1
102
RTVSPost2010Prop47
 90
       50
102
RTVSPost2010PropOp47
 70
     1
102
RTVSPost2010Prop48
 90
       50
102
RTVSPost2010PropOp48
 70
     1
102
RTVSPost2010Prop49
280
     0
102
RTVSPost2010PropOp49
 70
     1
102
RTVSPost2010Prop50
 90
       50
102
RTVSPost2010PropOp50
 70
     1
102
RTVSPost2010Prop51ColorIndex
 90
      256
102
RTVSPost2010Prop51ColorRGB
 90
-16777216
102
RTVSPost2010PropOp51
 70
     0
102
RTVSPost2010Prop52
140
1.0
102
RTVSPost2010PropOp52
 70
     0
102
RTVSPost2010Prop53
 90
        2
102
RTVSPost2010PropOp53
 70
     1
102
RTVSPost2010Prop54
  1
strokes_ogs.tif
102
RTVSPost2010PropOp54
 70
     1
102
RTVSPost2010Prop55
280
     0
102
RTVSPost2010PropOp55
 70
     1
102
RTVSPost2010Prop56
140
1.0
102
RTVSPost2010PropOp56
 70
     1
102
RTVSPost2010Prop57
140
1.0
102
RTVSPost2010PropOp57
 70
     1
  0
XRECORD
  5
813
102
{ACAD_REACTORS
330
812
102
}
330
812
100
AcDbXrecord
280
     1
102
RTVSPropertyOp0
 70
     1
102
RTVSPropertyOp1
 70
     1
102
RTVSPropertyOp2
 70
     1
102
RTVSPropertyOp3
 70
     1
102
RTVSPropertyOp4
 70
     1
102
RTVSPropertyOp5
 70
     1
102
RTVSPropertyOp6
 70
     1
102
RTVSPropertyOp7
 70
     1
102
RTVSPropertyOp8
 70
     1
102
RTVSPropertyOp9
 70
     1
102
RTVSPropertyOp10
 70
     1
102
RTVSPropertyOp11
 70
     1
102
RTVSPropertyOp12
 70
     1
102
RTVSPropertyOp13
 70
     1
102
RTVSPropertyOp14
 70
     1
102
RTVSPropertyOp15
 70
     1
102
RTVSPropertyOp16
 70
     1
102
RTVSPropertyOp17
 70
     1
102
RTVSPropertyOp18
 70
     1
102
RTVSPropertyOp19
 70
     1
102
RTVSPropertyOp20
 70
     1
102
RTVSPropertyOp21
 70
     1
102
RTVSPropertyOp22
 70
     1
102
RTVSPropertyOp23
 70
     1
102
RTVSPropertyOp24
 70
     1
102
RTVSPropertyOp25
 70
     1
102
RTVSPropertyOp26
 70
     1
102
RTVSPropertyOp27
 70
     1
102
RTVSPropertyOp28
 70
     1
102
RTVSPropertyOp29
 70
     1
102
RTVSPropertyOp30
 70
     1
102
RTVSPropertyOp31
 70
     1
102
RTVSPropertyOp32
 70
     1
102
RTVSPropertyOp33
 70
     1
102
RTVSPropertyOp34
 70
     1
102
RTVSPropertyOp35
 70
     1
102
RTVSPropertyOp36
 70
     1
102
RTVSPropertyOp37
 70
     1
102
RTVSPropertyOp38
 70
     1
102
RTVSPropertyOp39
 70
     1
102
RTVSPropertyOp40
 70
     1
102
RTVSPropertyOp41
 70
     1
102
RTVSPropertyOp42
 70
     1
102
RTVSPropertyOp43
 70
     1
102
RTVSPropertyOp44
 70
     1
102
RTVSPropertyOp45
 70
     1
102
RTVSPropertyOp46
 70
     1
102
RTVSPropertyOp47
 70
     1
102
RTVSPropertyOp48
 70
     1
102
RTVSPropertyOp49
 70
     1
102
RTVSPropertyOp50
 70
     1
102
RTVSPropertyOp51
 70
     0
102
RTVSPropertyOp52
 70
     0
102
RTVSPropertyOp53
 70
     1
102
RTVSPropertyOp54
 70
     1
102
RTVSPropertyOp55
 70
     1
102
RTVSPropertyOp56
 70
     1
102
RTVSPropertyOp57
 70
     1
102
RTVSPost2010Prop28
280
     0
102
RTVSPost2010PropOp28
 70
     1
102
RTVSPost2010Prop29
280
     1
102
RTVSPost2010PropOp29
 70
     1
102
RTVSPost2010Prop30
280
     1
102
RTVSPost2010PropOp30
 70
     1
102
RTVSPost2010Prop31
280
     0
102
RTVSPost2010PropOp31
 70
     1
102
RTVSPost2010Prop32
280
     0
102
RTVSPost2010PropOp32
 70
     1
102
RTVSPost2010Prop33
280
     0
102
RTVSPost2010PropOp33
 70
     1
102
RTVSPost2010Prop34
280
     0
102
RTVSPost2010PropOp34
 70
     1
102
RTVSPost2010Prop35
280
     0
102
RTVSPost2010PropOp35
 70
     1
102
RTVSPost2010Prop36
280
     0
102
RTVSPost2010PropOp36
 70
     1
102
RTVSPost2010Prop37
 90
       50
102
RTVSPost2010PropOp37
 70
     1
102
RTVSPost2010Prop38
140
0.0
102
RTVSPost2010PropOp38
 70
     1
102
RTVSPost2010Prop39
140
1.0
102
RTVSPost2010PropOp39
 70
     1
102
RTVSPost2010Prop40
 90
        0
102
RTVSPost2010PropOp40
 70
     1
102
RTVSPost2010Prop41ColorIndex
 90
       18
102
RTVSPost2010Prop41ColorRGB
 90
        0
102
RTVSPost2010PropOp41
 70
     1
102
RTVSPost2010Prop42
 90
       50
102
RTVSPost2010PropOp42
 70
     1
102
RTVSPost2010Prop43
 90
        3
102
RTVSPost2010PropOp43
 70
     1
102
RTVSPost2010Prop44ColorIndex
 90
        5
102
RTVSPost2010Prop44ColorRGB
 90
      255
102
RTVSPost2010PropOp44
 70
     1
102
RTVSPost2010Prop45
280
     0
102
RTVSPost2010PropOp45
 70
     1
102
RTVSPost2010Prop46
 90
       50
102
RTVSPost2010PropOp46
 70
     1
102
RTVSPost2010Prop47
 90
       50
102
RTVSPost2010PropOp47
 70
     1
102
RTVSPost2010Prop48
 90
       50
102
RTVSPost2010PropOp48
 70
     1
102
RTVSPost2010Prop49
280
     0
102
RTVSPost2010PropOp49
 70
     1
102
RTVSPost2010Prop50
 90
       50
102
RTVSPost2010PropOp50
 70
     1
102
RTVSPost2010Prop51ColorIndex
 90
      256
102
RTVSPost2010Prop51ColorRGB
 90
-16777216
102
RTVSPost2010PropOp51
 70
     0
102
RTVSPost2010Prop52
140
1.0
102
RTVSPost2010PropOp52
 70
     0
102
RTVSPost2010Prop53
 90
        2
102
RTVSPost2010PropOp53
 70
     1
102
RTVSPost2010Prop54
  1
strokes_ogs.tif
102
RTVSPost2010PropOp54
 70
     1
102
RTVSPost2010Prop55
280
     0
102
RTVSPost2010PropOp55
 70
     1
102
RTVSPost2010Prop56
140
1.0
102
RTVSPost2010PropOp56
 70
     1
102
RTVSPost2010Prop57
140
1.0
102
RTVSPost2010PropOp57
 70
     1
  0
XRECORD
  5
815
102
{ACAD_REACTORS
330
814
102
}
330
814
100
AcDbXrecord
280
     1
102
RTVSPropertyOp0
 70
     1
102
RTVSPropertyOp1
 70
     1
102
RTVSPropertyOp2
 70
     1
102
RTVSPropertyOp3
 70
     1
102
RTVSPropertyOp4
 70
     1
102
RTVSPropertyOp5
 70
     1
102
RTVSPropertyOp6
 70
     1
102
RTVSPropertyOp7
 70
     1
102
RTVSPropertyOp8
 70
     1
102
RTVSPropertyOp9
 70
     1
102
RTVSPropertyOp10
 70
     1
102
RTVSPropertyOp11
 70
     1
102
RTVSPropertyOp12
 70
     1
102
RTVSPropertyOp13
 70
     1
102
RTVSPropertyOp14
 70
     1
102
RTVSPropertyOp15
 70
     1
102
RTVSPropertyOp16
 70
     1
102
RTVSPropertyOp17
 70
     1
102
RTVSPropertyOp18
 70
     1
102
RTVSPropertyOp19
 70
     1
102
RTVSPropertyOp20
 70
     1
102
RTVSPropertyOp21
 70
     1
102
RTVSPropertyOp22
 70
     1
102
RTVSPropertyOp23
 70
     1
102
RTVSPropertyOp24
 70
     1
102
RTVSPropertyOp25
 70
     1
102
RTVSPropertyOp26
 70
     1
102
RTVSPropertyOp27
 70
     1
102
RTVSPropertyOp28
 70
     1
102
RTVSPropertyOp29
 70
     1
102
RTVSPropertyOp30
 70
     1
102
RTVSPropertyOp31
 70
     1
102
RTVSPropertyOp32
 70
     1
102
RTVSPropertyOp33
 70
     1
102
RTVSPropertyOp34
 70
     1
102
RTVSPropertyOp35
 70
     1
102
RTVSPropertyOp36
 70
     1
102
RTVSPropertyOp37
 70
     1
102
RTVSPropertyOp38
 70
     1
102
RTVSPropertyOp39
 70
     1
102
RTVSPropertyOp40
 70
     1
102
RTVSPropertyOp41
 70
     1
102
RTVSPropertyOp42
 70
     1
102
RTVSPropertyOp43
 70
     1
102
RTVSPropertyOp44
 70
     1
102
RTVSPropertyOp45
 70
     1
102
RTVSPropertyOp46
 70
     1
102
RTVSPropertyOp47
 70
     1
102
RTVSPropertyOp48
 70
     1
102
RTVSPropertyOp49
 70
     1
102
RTVSPropertyOp50
 70
     1
102
RTVSPropertyOp51
 70
     0
102
RTVSPropertyOp52
 70
     0
102
RTVSPropertyOp53
 70
     1
102
RTVSPropertyOp54
 70
     1
102
RTVSPropertyOp55
 70
     1
102
RTVSPropertyOp56
 70
     1
102
RTVSPropertyOp57
 70
     1
102
RTVSPost2010Prop28
280
     0
102
RTVSPost2010PropOp28
 70
     1
102
RTVSPost2010Prop29
280
     1
102
RTVSPost2010PropOp29
 70
     1
102
RTVSPost2010Prop30
280
     1
102
RTVSPost2010PropOp30
 70
     1
102
RTVSPost2010Prop31
280
     0
102
RTVSPost2010PropOp31
 70
     1
102
RTVSPost2010Prop32
280
     0
102
RTVSPost2010PropOp32
 70
     1
102
RTVSPost2010Prop33
280
     0
102
RTVSPost2010PropOp33
 70
     1
102
RTVSPost2010Prop34
280
     0
102
RTVSPost2010PropOp34
 70
     1
102
RTVSPost2010Prop35
280
     0
102
RTVSPost2010PropOp35
 70
     1
102
RTVSPost2010Prop36
280
     0
102
RTVSPost2010PropOp36
 70
     1
102
RTVSPost2010Prop37
 90
       50
102
RTVSPost2010PropOp37
 70
     1
102
RTVSPost2010Prop38
140
0.0
102
RTVSPost2010PropOp38
 70
     1
102
RTVSPost2010Prop39
140
1.0
102
RTVSPost2010PropOp39
 70
     1
102
RTVSPost2010Prop40
 90
        0
102
RTVSPost2010PropOp40
 70
     1
102
RTVSPost2010Prop41ColorIndex
 90
       18
102
RTVSPost2010Prop41ColorRGB
 90
        0
102
RTVSPost2010PropOp41
 70
     1
102
RTVSPost2010Prop42
 90
       50
102
RTVSPost2010PropOp42
 70
     1
102
RTVSPost2010Prop43
 90
        3
102
RTVSPost2010PropOp43
 70
     1
102
RTVSPost2010Prop44ColorIndex
 90
        5
102
RTVSPost2010Prop44ColorRGB
 90
      255
102
RTVSPost2010PropOp44
 70
     1
102
RTVSPost2010Prop45
280
     0
102
RTVSPost2010PropOp45
 70
     1
102
RTVSPost2010Prop46
 90
       50
102
RTVSPost2010PropOp46
 70
     1
102
RTVSPost2010Prop47
 90
       50
102
RTVSPost2010PropOp47
 70
     1
102
RTVSPost2010Prop48
 90
       50
102
RTVSPost2010PropOp48
 70
     1
102
RTVSPost2010Prop49
280
     0
102
RTVSPost2010PropOp49
 70
     1
102
RTVSPost2010Prop50
 90
       50
102
RTVSPost2010PropOp50
 70
     1
102
RTVSPost2010Prop51ColorIndex
 90
      256
102
RTVSPost2010Prop51ColorRGB
 90
-16777216
102
RTVSPost2010PropOp51
 70
     0
102
RTVSPost2010Prop52
140
1.0
102
RTVSPost2010PropOp52
 70
     0
102
RTVSPost2010Prop53
 90
        2
102
RTVSPost2010PropOp53
 70
     1
102
RTVSPost2010Prop54
  1
strokes_ogs.tif
102
RTVSPost2010PropOp54
 70
     1
102
RTVSPost2010Prop55
280
     0
102
RTVSPost2010PropOp55
 70
     1
102
RTVSPost2010Prop56
140
1.0
102
RTVSPost2010PropOp56
 70
     1
102
RTVSPost2010Prop57
140
1.0
102
RTVSPost2010PropOp57
 70
     1
  0
XRECORD
  5
817
102
{ACAD_REACTORS
330
816
102
}
330
816
100
AcDbXrecord
280
     1
102
RTVSPropertyOp0
 70
     1
102
RTVSPropertyOp1
 70
     1
102
RTVSPropertyOp2
 70
     1
102
RTVSPropertyOp3
 70
     1
102
RTVSPropertyOp4
 70
     1
102
RTVSPropertyOp5
 70
     1
102
RTVSPropertyOp6
 70
     1
102
RTVSPropertyOp7
 70
     1
102
RTVSPropertyOp8
 70
     1
102
RTVSPropertyOp9
 70
     1
102
RTVSPropertyOp10
 70
     1
102
RTVSPropertyOp11
 70
     1
102
RTVSPropertyOp12
 70
     1
102
RTVSPropertyOp13
 70
     1
102
RTVSPropertyOp14
 70
     1
102
RTVSPropertyOp15
 70
     1
102
RTVSPropertyOp16
 70
     1
102
RTVSPropertyOp17
 70
     1
102
RTVSPropertyOp18
 70
     1
102
RTVSPropertyOp19
 70
     1
102
RTVSPropertyOp20
 70
     1
102
RTVSPropertyOp21
 70
     1
102
RTVSPropertyOp22
 70
     1
102
RTVSPropertyOp23
 70
     1
102
RTVSPropertyOp24
 70
     1
102
RTVSPropertyOp25
 70
     1
102
RTVSPropertyOp26
 70
     1
102
RTVSPropertyOp27
 70
     1
102
RTVSPropertyOp28
 70
     1
102
RTVSPropertyOp29
 70
     1
102
RTVSPropertyOp30
 70
     1
102
RTVSPropertyOp31
 70
     1
102
RTVSPropertyOp32
 70
     1
102
RTVSPropertyOp33
 70
     1
102
RTVSPropertyOp34
 70
     1
102
RTVSPropertyOp35
 70
     1
102
RTVSPropertyOp36
 70
     1
102
RTVSPropertyOp37
 70
     1
102
RTVSPropertyOp38
 70
     1
102
RTVSPropertyOp39
 70
     1
102
RTVSPropertyOp40
 70
     1
102
RTVSPropertyOp41
 70
     1
102
RTVSPropertyOp42
 70
     1
102
RTVSPropertyOp43
 70
     1
102
RTVSPropertyOp44
 70
     1
102
RTVSPropertyOp45
 70
     1
102
RTVSPropertyOp46
 70
     1
102
RTVSPropertyOp47
 70
     1
102
RTVSPropertyOp48
 70
     1
102
RTVSPropertyOp49
 70
     1
102
RTVSPropertyOp50
 70
     1
102
RTVSPropertyOp51
 70
     0
102
RTVSPropertyOp52
 70
     0
102
RTVSPropertyOp53
 70
     1
102
RTVSPropertyOp54
 70
     1
102
RTVSPropertyOp55
 70
     1
102
RTVSPropertyOp56
 70
     1
102
RTVSPropertyOp57
 70
     1
102
RTVSPost2010Prop28
280
     0
102
RTVSPost2010PropOp28
 70
     1
102
RTVSPost2010Prop29
280
     1
102
RTVSPost2010PropOp29
 70
     1
102
RTVSPost2010Prop30
280
     1
102
RTVSPost2010PropOp30
 70
     1
102
RTVSPost2010Prop31
280
     0
102
RTVSPost2010PropOp31
 70
     1
102
RTVSPost2010Prop32
280
     0
102
RTVSPost2010PropOp32
 70
     1
102
RTVSPost2010Prop33
280
     0
102
RTVSPost2010PropOp33
 70
     1
102
RTVSPost2010Prop34
280
     0
102
RTVSPost2010PropOp34
 70
     1
102
RTVSPost2010Prop35
280
     0
102
RTVSPost2010PropOp35
 70
     1
102
RTVSPost2010Prop36
280
     0
102
RTVSPost2010PropOp36
 70
     1
102
RTVSPost2010Prop37
 90
       50
102
RTVSPost2010PropOp37
 70
     1
102
RTVSPost2010Prop38
140
0.0
102
RTVSPost2010PropOp38
 70
     1
102
RTVSPost2010Prop39
140
1.0
102
RTVSPost2010PropOp39
 70
     1
102
RTVSPost2010Prop40
 90
        0
102
RTVSPost2010PropOp40
 70
     1
102
RTVSPost2010Prop41ColorIndex
 90
       18
102
RTVSPost2010Prop41ColorRGB
 90
        0
102
RTVSPost2010PropOp41
 70
     1
102
RTVSPost2010Prop42
 90
       50
102
RTVSPost2010PropOp42
 70
     1
102
RTVSPost2010Prop43
 90
        3
102
RTVSPost2010PropOp43
 70
     1
102
RTVSPost2010Prop44ColorIndex
 90
        5
102
RTVSPost2010Prop44ColorRGB
 90
      255
102
RTVSPost2010PropOp44
 70
     1
102
RTVSPost2010Prop45
280
     0
102
RTVSPost2010PropOp45
 70
     1
102
RTVSPost2010Prop46
 90
       50
102
RTVSPost2010PropOp46
 70
     1
102
RTVSPost2010Prop47
 90
       50
102
RTVSPost2010PropOp47
 70
     1
102
RTVSPost2010Prop48
 90
       50
102
RTVSPost2010PropOp48
 70
     1
102
RTVSPost2010Prop49
280
     0
102
RTVSPost2010PropOp49
 70
     1
102
RTVSPost2010Prop50
 90
       50
102
RTVSPost2010PropOp50
 70
     1
102
RTVSPost2010Prop51ColorIndex
 90
      256
102
RTVSPost2010Prop51ColorRGB
 90
-16777216
102
RTVSPost2010PropOp51
 70
     0
102
RTVSPost2010Prop52
140
1.0
102
RTVSPost2010PropOp52
 70
     0
102
RTVSPost2010Prop53
 90
        2
102
RTVSPost2010PropOp53
 70
     1
102
RTVSPost2010Prop54
  1
strokes_ogs.tif
102
RTVSPost2010PropOp54
 70
     1
102
RTVSPost2010Prop55
280
     0
102
RTVSPost2010PropOp55
 70
     1
102
RTVSPost2010Prop56
140
1.0
102
RTVSPost2010PropOp56
 70
     1
102
RTVSPost2010Prop57
140
1.0
102
RTVSPost2010PropOp57
 70
     1
  0
XRECORD
  5
833
102
{ACAD_REACTORS
330
832
102
}
330
832
100
AcDbXrecord
280
     1
102
RTVSPropertyOp0
 70
     1
102
RTVSPropertyOp1
 70
     1
102
RTVSPropertyOp2
 70
     1
102
RTVSPropertyOp3
 70
     1
102
RTVSPropertyOp4
 70
     1
102
RTVSPropertyOp5
 70
     1
102
RTVSPropertyOp6
 70
     1
102
RTVSPropertyOp7
 70
     1
102
RTVSPropertyOp8
 70
     1
102
RTVSPropertyOp9
 70
     1
102
RTVSPropertyOp10
 70
     1
102
RTVSPropertyOp11
 70
     1
102
RTVSPropertyOp12
 70
     1
102
RTVSPropertyOp13
 70
     1
102
RTVSPropertyOp14
 70
     1
102
RTVSPropertyOp15
 70
     1
102
RTVSPropertyOp16
 70
     1
102
RTVSPropertyOp17
 70
     1
102
RTVSPropertyOp18
 70
     1
102
RTVSPropertyOp19
 70
     1
102
RTVSPropertyOp20
 70
     1
102
RTVSPropertyOp21
 70
     1
102
RTVSPropertyOp22
 70
     1
102
RTVSPropertyOp23
 70
     1
102
RTVSPropertyOp24
 70
     1
102
RTVSPropertyOp25
 70
     1
102
RTVSPropertyOp26
 70
     1
102
RTVSPropertyOp27
 70
     1
102
RTVSPropertyOp28
 70
     1
102
RTVSPropertyOp29
 70
     1
102
RTVSPropertyOp30
 70
     1
102
RTVSPropertyOp31
 70
     1
102
RTVSPropertyOp32
 70
     1
102
RTVSPropertyOp33
 70
     1
102
RTVSPropertyOp34
 70
     1
102
RTVSPropertyOp35
 70
     1
102
RTVSPropertyOp36
 70
     1
102
RTVSPropertyOp37
 70
     1
102
RTVSPropertyOp38
 70
     1
102
RTVSPropertyOp39
 70
     1
102
RTVSPropertyOp40
 70
     1
102
RTVSPropertyOp41
 70
     1
102
RTVSPropertyOp42
 70
     1
102
RTVSPropertyOp43
 70
     1
102
RTVSPropertyOp44
 70
     1
102
RTVSPropertyOp45
 70
     1
102
RTVSPropertyOp46
 70
     1
102
RTVSPropertyOp47
 70
     1
102
RTVSPropertyOp48
 70
     1
102
RTVSPropertyOp49
 70
     1
102
RTVSPropertyOp50
 70
     1
102
RTVSPropertyOp51
 70
     0
102
RTVSPropertyOp52
 70
     0
102
RTVSPropertyOp53
 70
     1
102
RTVSPropertyOp54
 70
     1
102
RTVSPropertyOp55
 70
     1
102
RTVSPropertyOp56
 70
     1
102
RTVSPropertyOp57
 70
     1
102
RTVSPost2010Prop28
280
     0
102
RTVSPost2010PropOp28
 70
     1
102
RTVSPost2010Prop29
280
     1
102
RTVSPost2010PropOp29
 70
     1
102
RTVSPost2010Prop30
280
     1
102
RTVSPost2010PropOp30
 70
     1
102
RTVSPost2010Prop31
280
     0
102
RTVSPost2010PropOp31
 70
     1
102
RTVSPost2010Prop32
280
     0
102
RTVSPost2010PropOp32
 70
     1
102
RTVSPost2010Prop33
280
     0
102
RTVSPost2010PropOp33
 70
     1
102
RTVSPost2010Prop34
280
     0
102
RTVSPost2010PropOp34
 70
     1
102
RTVSPost2010Prop35
280
     0
102
RTVSPost2010PropOp35
 70
     1
102
RTVSPost2010Prop36
280
     0
102
RTVSPost2010PropOp36
 70
     1
102
RTVSPost2010Prop37
 90
       50
102
RTVSPost2010PropOp37
 70
     1
102
RTVSPost2010Prop38
140
0.0
102
RTVSPost2010PropOp38
 70
     1
102
RTVSPost2010Prop39
140
1.0
102
RTVSPost2010PropOp39
 70
     1
102
RTVSPost2010Prop40
 90
        0
102
RTVSPost2010PropOp40
 70
     1
102
RTVSPost2010Prop41ColorIndex
 90
       18
102
RTVSPost2010Prop41ColorRGB
 90
        0
102
RTVSPost2010PropOp41
 70
     1
102
RTVSPost2010Prop42
 90
       50
102
RTVSPost2010PropOp42
 70
     1
102
RTVSPost2010Prop43
 90
        3
102
RTVSPost2010PropOp43
 70
     1
102
RTVSPost2010Prop44ColorIndex
 90
        5
102
RTVSPost2010Prop44ColorRGB
 90
      255
102
RTVSPost2010PropOp44
 70
     1
102
RTVSPost2010Prop45
280
     0
102
RTVSPost2010PropOp45
 70
     1
102
RTVSPost2010Prop46
 90
       50
102
RTVSPost2010PropOp46
 70
     1
102
RTVSPost2010Prop47
 90
       50
102
RTVSPost2010PropOp47
 70
     1
102
RTVSPost2010Prop48
 90
       50
102
RTVSPost2010PropOp48
 70
     1
102
RTVSPost2010Prop49
280
     0
102
RTVSPost2010PropOp49
 70
     1
102
RTVSPost2010Prop50
 90
       50
102
RTVSPost2010PropOp50
 70
     1
102
RTVSPost2010Prop51ColorIndex
 90
      256
102
RTVSPost2010Prop51ColorRGB
 90
-16777216
102
RTVSPost2010PropOp51
 70
     0
102
RTVSPost2010Prop52
140
1.0
102
RTVSPost2010PropOp52
 70
     0
102
RTVSPost2010Prop53
 90
        2
102
RTVSPost2010PropOp53
 70
     1
102
RTVSPost2010Prop54
  1
strokes_ogs.tif
102
RTVSPost2010PropOp54
 70
     1
102
RTVSPost2010Prop55
280
     0
102
RTVSPost2010PropOp55
 70
     1
102
RTVSPost2010Prop56
140
1.0
102
RTVSPost2010PropOp56
 70
     1
102
RTVSPost2010Prop57
140
1.0
102
RTVSPost2010PropOp57
 70
     1
  0
XRECORD
  5
835
102
{ACAD_REACTORS
330
834
102
}
330
834
100
AcDbXrecord
280
     1
102
RTVSPropertyOp0
 70
     0
102
RTVSPropertyOp1
 70
     0
102
RTVSPropertyOp2
 70
     0
102
RTVSPropertyOp3
 70
     0
102
RTVSPropertyOp4
 70
     0
102
RTVSPropertyOp5
 70
     0
102
RTVSPropertyOp6
 70
     0
102
RTVSPropertyOp7
 70
     0
102
RTVSPropertyOp8
 70
     0
102
RTVSPropertyOp9
 70
     0
102
RTVSPropertyOp10
 70
     0
102
RTVSPropertyOp11
 70
     0
102
RTVSPropertyOp12
 70
     0
102
RTVSPropertyOp13
 70
     0
102
RTVSPropertyOp14
 70
     0
102
RTVSPropertyOp15
 70
     0
102
RTVSPropertyOp16
 70
     0
102
RTVSPropertyOp17
 70
     0
102
RTVSPropertyOp18
 70
     0
102
RTVSPropertyOp19
 70
     0
102
RTVSPropertyOp20
 70
     0
102
RTVSPropertyOp21
 70
     0
102
RTVSPropertyOp22
 70
     0
102
RTVSPropertyOp23
 70
     0
102
RTVSPropertyOp24
 70
     0
102
RTVSPropertyOp25
 70
     0
102
RTVSPropertyOp26
 70
     0
102
RTVSPropertyOp27
 70
     0
102
RTVSPropertyOp28
 70
     1
102
RTVSPropertyOp29
 70
     1
102
RTVSPropertyOp30
 70
     1
102
RTVSPropertyOp31
 70
     1
102
RTVSPropertyOp32
 70
     1
102
RTVSPropertyOp33
 70
     1
102
RTVSPropertyOp34
 70
     1
102
RTVSPropertyOp35
 70
     1
102
RTVSPropertyOp36
 70
     1
102
RTVSPropertyOp37
 70
     1
102
RTVSPropertyOp38
 70
     1
102
RTVSPropertyOp39
 70
     1
102
RTVSPropertyOp40
 70
     1
102
RTVSPropertyOp41
 70
     1
102
RTVSPropertyOp42
 70
     1
102
RTVSPropertyOp43
 70
     1
102
RTVSPropertyOp44
 70
     1
102
RTVSPropertyOp45
 70
     1
102
RTVSPropertyOp46
 70
     1
102
RTVSPropertyOp47
 70
     1
102
RTVSPropertyOp48
 70
     1
102
RTVSPropertyOp49
 70
     1
102
RTVSPropertyOp50
 70
     1
102
RTVSPropertyOp51
 70
     0
102
RTVSPropertyOp52
 70
     0
102
RTVSPropertyOp53
 70
     1
102
RTVSPropertyOp54
 70
     1
102
RTVSPropertyOp55
 70
     1
102
RTVSPropertyOp56
 70
     1
102
RTVSPropertyOp57
 70
     1
102
RTVSPost2010Prop28
280
     0
102
RTVSPost2010PropOp28
 70
     1
102
RTVSPost2010Prop29
280
     1
102
RTVSPost2010PropOp29
 70
     1
102
RTVSPost2010Prop30
280
     1
102
RTVSPost2010PropOp30
 70
     1
102
RTVSPost2010Prop31
280
     0
102
RTVSPost2010PropOp31
 70
     1
102
RTVSPost2010Prop32
280
     0
102
RTVSPost2010PropOp32
 70
     1
102
RTVSPost2010Prop33
280
     0
102
RTVSPost2010PropOp33
 70
     1
102
RTVSPost2010Prop34
280
     0
102
RTVSPost2010PropOp34
 70
     1
102
RTVSPost2010Prop35
280
     0
102
RTVSPost2010PropOp35
 70
     1
102
RTVSPost2010Prop36
280
     0
102
RTVSPost2010PropOp36
 70
     1
102
RTVSPost2010Prop37
 90
       50
102
RTVSPost2010PropOp37
 70
     1
102
RTVSPost2010Prop38
140
0.0
102
RTVSPost2010PropOp38
 70
     1
102
RTVSPost2010Prop39
140
1.0
102
RTVSPost2010PropOp39
 70
     1
102
RTVSPost2010Prop40
 90
        0
102
RTVSPost2010PropOp40
 70
     1
102
RTVSPost2010Prop41ColorIndex
 90
       18
102
RTVSPost2010Prop41ColorRGB
 90
        0
102
RTVSPost2010PropOp41
 70
     1
102
RTVSPost2010Prop42
 90
       50
102
RTVSPost2010PropOp42
 70
     1
102
RTVSPost2010Prop43
 90
        3
102
RTVSPost2010PropOp43
 70
     1
102
RTVSPost2010Prop44ColorIndex
 90
        5
102
RTVSPost2010Prop44ColorRGB
 90
      255
102
RTVSPost2010PropOp44
 70
     1
102
RTVSPost2010Prop45
280
     0
102
RTVSPost2010PropOp45
 70
     1
102
RTVSPost2010Prop46
 90
       50
102
RTVSPost2010PropOp46
 70
     1
102
RTVSPost2010Prop47
 90
       50
102
RTVSPost2010PropOp47
 70
     1
102
RTVSPost2010Prop48
 90
       50
102
RTVSPost2010PropOp48
 70
     1
102
RTVSPost2010Prop49
280
     0
102
RTVSPost2010PropOp49
 70
     1
102
RTVSPost2010Prop50
 90
       50
102
RTVSPost2010PropOp50
 70
     1
102
RTVSPost2010Prop51ColorIndex
 90
      256
102
RTVSPost2010Prop51ColorRGB
 90
-16777216
102
RTVSPost2010PropOp51
 70
     0
102
RTVSPost2010Prop52
140
1.0
102
RTVSPost2010PropOp52
 70
     0
102
RTVSPost2010Prop53
 90
        2
102
RTVSPost2010PropOp53
 70
     1
102
RTVSPost2010Prop54
  1
strokes_ogs.tif
102
RTVSPost2010PropOp54
 70
     1
102
RTVSPost2010Prop55
280
     0
102
RTVSPost2010PropOp55
 70
     1
102
RTVSPost2010Prop56
140
1.0
102
RTVSPost2010PropOp56
 70
     1
102
RTVSPost2010Prop57
140
1.0
102
RTVSPost2010PropOp57
 70
     1
  0
XRECORD
  5
82B
102
{ACAD_REACTORS
330
82A
102
}
330
82A
100
AcDbXrecord
280
     1
102
RTVSPropertyOp0
 70
     1
102
RTVSPropertyOp1
 70
     1
102
RTVSPropertyOp2
 70
     1
102
RTVSPropertyOp3
 70
     1
102
RTVSPropertyOp4
 70
     1
102
RTVSPropertyOp5
 70
     1
102
RTVSPropertyOp6
 70
     1
102
RTVSPropertyOp7
 70
     1
102
RTVSPropertyOp8
 70
     1
102
RTVSPropertyOp9
 70
     1
102
RTVSPropertyOp10
 70
     1
102
RTVSPropertyOp11
 70
     1
102
RTVSPropertyOp12
 70
     1
102
RTVSPropertyOp13
 70
     1
102
RTVSPropertyOp14
 70
     1
102
RTVSPropertyOp15
 70
     1
102
RTVSPropertyOp16
 70
     1
102
RTVSPropertyOp17
 70
     1
102
RTVSPropertyOp18
 70
     1
102
RTVSPropertyOp19
 70
     1
102
RTVSPropertyOp20
 70
     1
102
RTVSPropertyOp21
 70
     1
102
RTVSPropertyOp22
 70
     1
102
RTVSPropertyOp23
 70
     1
102
RTVSPropertyOp24
 70
     1
102
RTVSPropertyOp25
 70
     1
102
RTVSPropertyOp26
 70
     1
102
RTVSPropertyOp27
 70
     1
102
RTVSPropertyOp28
 70
     1
102
RTVSPropertyOp29
 70
     1
102
RTVSPropertyOp30
 70
     1
102
RTVSPropertyOp31
 70
     1
102
RTVSPropertyOp32
 70
     1
102
RTVSPropertyOp33
 70
     1
102
RTVSPropertyOp34
 70
     1
102
RTVSPropertyOp35
 70
     1
102
RTVSPropertyOp36
 70
     1
102
RTVSPropertyOp37
 70
     1
102
RTVSPropertyOp38
 70
     1
102
RTVSPropertyOp39
 70
     1
102
RTVSPropertyOp40
 70
     1
102
RTVSPropertyOp41
 70
     1
102
RTVSPropertyOp42
 70
     1
102
RTVSPropertyOp43
 70
     1
102
RTVSPropertyOp44
 70
     1
102
RTVSPropertyOp45
 70
     1
102
RTVSPropertyOp46
 70
     1
102
RTVSPropertyOp47
 70
     1
102
RTVSPropertyOp48
 70
     1
102
RTVSPropertyOp49
 70
     1
102
RTVSPropertyOp50
 70
     1
102
RTVSPropertyOp51
 70
     0
102
RTVSPropertyOp52
 70
     0
102
RTVSPropertyOp53
 70
     1
102
RTVSPropertyOp54
 70
     1
102
RTVSPropertyOp55
 70
     1
102
RTVSPropertyOp56
 70
     1
102
RTVSPropertyOp57
 70
     1
102
RTVSPost2010Prop28
280
     0
102
RTVSPost2010PropOp28
 70
     1
102
RTVSPost2010Prop29
280
     1
102
RTVSPost2010PropOp29
 70
     1
102
RTVSPost2010Prop30
280
     1
102
RTVSPost2010PropOp30
 70
     1
102
RTVSPost2010Prop31
280
     0
102
RTVSPost2010PropOp31
 70
     1
102
RTVSPost2010Prop32
280
     0
102
RTVSPost2010PropOp32
 70
     1
102
RTVSPost2010Prop33
280
     0
102
RTVSPost2010PropOp33
 70
     1
102
RTVSPost2010Prop34
280
     0
102
RTVSPost2010PropOp34
 70
     1
102
RTVSPost2010Prop35
280
     0
102
RTVSPost2010PropOp35
 70
     1
102
RTVSPost2010Prop36
280
     0
102
RTVSPost2010PropOp36
 70
     1
102
RTVSPost2010Prop37
 90
       50
102
RTVSPost2010PropOp37
 70
     1
102
RTVSPost2010Prop38
140
0.0
102
RTVSPost2010PropOp38
 70
     1
102
RTVSPost2010Prop39
140
1.0
102
RTVSPost2010PropOp39
 70
     1
102
RTVSPost2010Prop40
 90
        0
102
RTVSPost2010PropOp40
 70
     1
102
RTVSPost2010Prop41ColorIndex
 90
       18
102
RTVSPost2010Prop41ColorRGB
 90
        0
102
RTVSPost2010PropOp41
 70
     1
102
RTVSPost2010Prop42
 90
       50
102
RTVSPost2010PropOp42
 70
     1
102
RTVSPost2010Prop43
 90
        3
102
RTVSPost2010PropOp43
 70
     1
102
RTVSPost2010Prop44ColorIndex
 90
        5
102
RTVSPost2010Prop44ColorRGB
 90
      255
102
RTVSPost2010PropOp44
 70
     1
102
RTVSPost2010Prop45
280
     0
102
RTVSPost2010PropOp45
 70
     1
102
RTVSPost2010Prop46
 90
       50
102
RTVSPost2010PropOp46
 70
     1
102
RTVSPost2010Prop47
 90
       50
102
RTVSPost2010PropOp47
 70
     1
102
RTVSPost2010Prop48
 90
       50
102
RTVSPost2010PropOp48
 70
     1
102
RTVSPost2010Prop49
280
     0
102
RTVSPost2010PropOp49
 70
     1
102
RTVSPost2010Prop50
 90
       50
102
RTVSPost2010PropOp50
 70
     1
102
RTVSPost2010Prop51ColorIndex
 90
      256
102
RTVSPost2010Prop51ColorRGB
 90
-16777216
102
RTVSPost2010PropOp51
 70
     0
102
RTVSPost2010Prop52
140
1.0
102
RTVSPost2010PropOp52
 70
     0
102
RTVSPost2010Prop53
 90
        2
102
RTVSPost2010PropOp53
 70
     1
102
RTVSPost2010Prop54
  1
strokes_ogs.tif
102
RTVSPost2010PropOp54
 70
     1
102
RTVSPost2010Prop55
280
     0
102
RTVSPost2010PropOp55
 70
     1
102
RTVSPost2010Prop56
140
1.0
102
RTVSPost2010PropOp56
 70
     1
102
RTVSPost2010Prop57
140
1.0
102
RTVSPost2010PropOp57
 70
     1
  0
XRECORD
  5
837
102
{ACAD_REACTORS
330
836
102
}
330
836
100
AcDbXrecord
280
     1
102
RTVSPropertyOp0
 70
     0
102
RTVSPropertyOp1
 70
     0
102
RTVSPropertyOp2
 70
     0
102
RTVSPropertyOp3
 70
     0
102
RTVSPropertyOp4
 70
     0
102
RTVSPropertyOp5
 70
     0
102
RTVSPropertyOp6
 70
     0
102
RTVSPropertyOp7
 70
     0
102
RTVSPropertyOp8
 70
     0
102
RTVSPropertyOp9
 70
     0
102
RTVSPropertyOp10
 70
     0
102
RTVSPropertyOp11
 70
     0
102
RTVSPropertyOp12
 70
     0
102
RTVSPropertyOp13
 70
     0
102
RTVSPropertyOp14
 70
     0
102
RTVSPropertyOp15
 70
     0
102
RTVSPropertyOp16
 70
     0
102
RTVSPropertyOp17
 70
     0
102
RTVSPropertyOp18
 70
     0
102
RTVSPropertyOp19
 70
     0
102
RTVSPropertyOp20
 70
     0
102
RTVSPropertyOp21
 70
     0
102
RTVSPropertyOp22
 70
     0
102
RTVSPropertyOp23
 70
     0
102
RTVSPropertyOp24
 70
     0
102
RTVSPropertyOp25
 70
     0
102
RTVSPropertyOp26
 70
     0
102
RTVSPropertyOp27
 70
     0
102
RTVSPropertyOp28
 70
     1
102
RTVSPropertyOp29
 70
     1
102
RTVSPropertyOp30
 70
     1
102
RTVSPropertyOp31
 70
     1
102
RTVSPropertyOp32
 70
     1
102
RTVSPropertyOp33
 70
     1
102
RTVSPropertyOp34
 70
     1
102
RTVSPropertyOp35
 70
     1
102
RTVSPropertyOp36
 70
     1
102
RTVSPropertyOp37
 70
     1
102
RTVSPropertyOp38
 70
     1
102
RTVSPropertyOp39
 70
     1
102
RTVSPropertyOp40
 70
     1
102
RTVSPropertyOp41
 70
     1
102
RTVSPropertyOp42
 70
     1
102
RTVSPropertyOp43
 70
     1
102
RTVSPropertyOp44
 70
     1
102
RTVSPropertyOp45
 70
     1
102
RTVSPropertyOp46
 70
     1
102
RTVSPropertyOp47
 70
     1
102
RTVSPropertyOp48
 70
     1
102
RTVSPropertyOp49
 70
     1
102
RTVSPropertyOp50
 70
     1
102
RTVSPropertyOp51
 70
     0
102
RTVSPropertyOp52
 70
     0
102
RTVSPropertyOp53
 70
     1
102
RTVSPropertyOp54
 70
     1
102
RTVSPropertyOp55
 70
     1
102
RTVSPropertyOp56
 70
     1
102
RTVSPropertyOp57
 70
     1
102
RTVSPost2010Prop28
280
     0
102
RTVSPost2010PropOp28
 70
     1
102
RTVSPost2010Prop29
280
     1
102
RTVSPost2010PropOp29
 70
     1
102
RTVSPost2010Prop30
280
     1
102
RTVSPost2010PropOp30
 70
     1
102
RTVSPost2010Prop31
280
     0
102
RTVSPost2010PropOp31
 70
     1
102
RTVSPost2010Prop32
280
     0
102
RTVSPost2010PropOp32
 70
     1
102
RTVSPost2010Prop33
280
     0
102
RTVSPost2010PropOp33
 70
     1
102
RTVSPost2010Prop34
280
     0
102
RTVSPost2010PropOp34
 70
     1
102
RTVSPost2010Prop35
280
     0
102
RTVSPost2010PropOp35
 70
     1
102
RTVSPost2010Prop36
280
     0
102
RTVSPost2010PropOp36
 70
     1
102
RTVSPost2010Prop37
 90
       50
102
RTVSPost2010PropOp37
 70
     1
102
RTVSPost2010Prop38
140
0.0
102
RTVSPost2010PropOp38
 70
     1
102
RTVSPost2010Prop39
140
1.0
102
RTVSPost2010PropOp39
 70
     1
102
RTVSPost2010Prop40
 90
        0
102
RTVSPost2010PropOp40
 70
     1
102
RTVSPost2010Prop41ColorIndex
 90
       18
102
RTVSPost2010Prop41ColorRGB
 90
        0
102
RTVSPost2010PropOp41
 70
     1
102
RTVSPost2010Prop42
 90
       50
102
RTVSPost2010PropOp42
 70
     1
102
RTVSPost2010Prop43
 90
        3
102
RTVSPost2010PropOp43
 70
     1
102
RTVSPost2010Prop44ColorIndex
 90
        5
102
RTVSPost2010Prop44ColorRGB
 90
      255
102
RTVSPost2010PropOp44
 70
     1
102
RTVSPost2010Prop45
280
     0
102
RTVSPost2010PropOp45
 70
     1
102
RTVSPost2010Prop46
 90
       50
102
RTVSPost2010PropOp46
 70
     1
102
RTVSPost2010Prop47
 90
       50
102
RTVSPost2010PropOp47
 70
     1
102
RTVSPost2010Prop48
 90
       50
102
RTVSPost2010PropOp48
 70
     1
102
RTVSPost2010Prop49
280
     0
102
RTVSPost2010PropOp49
 70
     1
102
RTVSPost2010Prop50
 90
       50
102
RTVSPost2010PropOp50
 70
     1
102
RTVSPost2010Prop51ColorIndex
 90
      256
102
RTVSPost2010Prop51ColorRGB
 90
-16777216
102
RTVSPost2010PropOp51
 70
     0
102
RTVSPost2010Prop52
140
1.0
102
RTVSPost2010PropOp52
 70
     0
102
RTVSPost2010Prop53
 90
        2
102
RTVSPost2010PropOp53
 70
     1
102
RTVSPost2010Prop54
  1
strokes_ogs.tif
102
RTVSPost2010PropOp54
 70
     1
102
RTVSPost2010Prop55
280
     0
102
RTVSPost2010PropOp55
 70
     1
102
RTVSPost2010Prop56
140
1.0
102
RTVSPost2010PropOp56
 70
     1
102
RTVSPost2010Prop57
140
1.0
102
RTVSPost2010PropOp57
 70
     1
  0
XRECORD
  5
821
102
{ACAD_REACTORS
330
820
102
}
330
820
100
AcDbXrecord
280
     1
102
RTVSPropertyOp0
 70
     1
102
RTVSPropertyOp1
 70
     1
102
RTVSPropertyOp2
 70
     1
102
RTVSPropertyOp3
 70
     1
102
RTVSPropertyOp4
 70
     1
102
RTVSPropertyOp5
 70
     1
102
RTVSPropertyOp6
 70
     1
102
RTVSPropertyOp7
 70
     1
102
RTVSPropertyOp8
 70
     1
102
RTVSPropertyOp9
 70
     1
102
RTVSPropertyOp10
 70
     1
102
RTVSPropertyOp11
 70
     1
102
RTVSPropertyOp12
 70
     1
102
RTVSPropertyOp13
 70
     1
102
RTVSPropertyOp14
 70
     1
102
RTVSPropertyOp15
 70
     1
102
RTVSPropertyOp16
 70
     1
102
RTVSPropertyOp17
 70
     1
102
RTVSPropertyOp18
 70
     1
102
RTVSPropertyOp19
 70
     1
102
RTVSPropertyOp20
 70
     1
102
RTVSPropertyOp21
 70
     1
102
RTVSPropertyOp22
 70
     1
102
RTVSPropertyOp23
 70
     1
102
RTVSPropertyOp24
 70
     1
102
RTVSPropertyOp25
 70
     1
102
RTVSPropertyOp26
 70
     1
102
RTVSPropertyOp27
 70
     1
102
RTVSPropertyOp28
 70
     1
102
RTVSPropertyOp29
 70
     1
102
RTVSPropertyOp30
 70
     1
102
RTVSPropertyOp31
 70
     1
102
RTVSPropertyOp32
 70
     1
102
RTVSPropertyOp33
 70
     1
102
RTVSPropertyOp34
 70
     1
102
RTVSPropertyOp35
 70
     1
102
RTVSPropertyOp36
 70
     1
102
RTVSPropertyOp37
 70
     1
102
RTVSPropertyOp38
 70
     1
102
RTVSPropertyOp39
 70
     1
102
RTVSPropertyOp40
 70
     1
102
RTVSPropertyOp41
 70
     1
102
RTVSPropertyOp42
 70
     1
102
RTVSPropertyOp43
 70
     1
102
RTVSPropertyOp44
 70
     1
102
RTVSPropertyOp45
 70
     1
102
RTVSPropertyOp46
 70
     1
102
RTVSPropertyOp47
 70
     1
102
RTVSPropertyOp48
 70
     1
102
RTVSPropertyOp49
 70
     1
102
RTVSPropertyOp50
 70
     1
102
RTVSPropertyOp51
 70
     0
102
RTVSPropertyOp52
 70
     0
102
RTVSPropertyOp53
 70
     1
102
RTVSPropertyOp54
 70
     1
102
RTVSPropertyOp55
 70
     1
102
RTVSPropertyOp56
 70
     1
102
RTVSPropertyOp57
 70
     1
102
RTVSPost2010Prop28
280
     0
102
RTVSPost2010PropOp28
 70
     1
102
RTVSPost2010Prop29
280
     1
102
RTVSPost2010PropOp29
 70
     1
102
RTVSPost2010Prop30
280
     1
102
RTVSPost2010PropOp30
 70
     1
102
RTVSPost2010Prop31
280
     0
102
RTVSPost2010PropOp31
 70
     1
102
RTVSPost2010Prop32
280
     0
102
RTVSPost2010PropOp32
 70
     1
102
RTVSPost2010Prop33
280
     0
102
RTVSPost2010PropOp33
 70
     1
102
RTVSPost2010Prop34
280
     0
102
RTVSPost2010PropOp34
 70
     1
102
RTVSPost2010Prop35
280
     0
102
RTVSPost2010PropOp35
 70
     1
102
RTVSPost2010Prop36
280
     0
102
RTVSPost2010PropOp36
 70
     1
102
RTVSPost2010Prop37
 90
       50
102
RTVSPost2010PropOp37
 70
     1
102
RTVSPost2010Prop38
140
0.0
102
RTVSPost2010PropOp38
 70
     1
102
RTVSPost2010Prop39
140
1.0
102
RTVSPost2010PropOp39
 70
     1
102
RTVSPost2010Prop40
 90
        0
102
RTVSPost2010PropOp40
 70
     1
102
RTVSPost2010Prop41ColorIndex
 90
       18
102
RTVSPost2010Prop41ColorRGB
 90
        0
102
RTVSPost2010PropOp41
 70
     1
102
RTVSPost2010Prop42
 90
       50
102
RTVSPost2010PropOp42
 70
     1
102
RTVSPost2010Prop43
 90
        3
102
RTVSPost2010PropOp43
 70
     1
102
RTVSPost2010Prop44ColorIndex
 90
        5
102
RTVSPost2010Prop44ColorRGB
 90
      255
102
RTVSPost2010PropOp44
 70
     1
102
RTVSPost2010Prop45
280
     0
102
RTVSPost2010PropOp45
 70
     1
102
RTVSPost2010Prop46
 90
       50
102
RTVSPost2010PropOp46
 70
     1
102
RTVSPost2010Prop47
 90
       50
102
RTVSPost2010PropOp47
 70
     1
102
RTVSPost2010Prop48
 90
       50
102
RTVSPost2010PropOp48
 70
     1
102
RTVSPost2010Prop49
280
     0
102
RTVSPost2010PropOp49
 70
     1
102
RTVSPost2010Prop50
 90
       50
102
RTVSPost2010PropOp50
 70
     1
102
RTVSPost2010Prop51ColorIndex
 90
      256
102
RTVSPost2010Prop51ColorRGB
 90
-16777216
102
RTVSPost2010PropOp51
 70
     0
102
RTVSPost2010Prop52
140
1.0
102
RTVSPost2010PropOp52
 70
     0
102
RTVSPost2010Prop53
 90
        2
102
RTVSPost2010PropOp53
 70
     1
102
RTVSPost2010Prop54
  1
strokes_ogs.tif
102
RTVSPost2010PropOp54
 70
     1
102
RTVSPost2010Prop55
280
     0
102
RTVSPost2010PropOp55
 70
     1
102
RTVSPost2010Prop56
140
1.0
102
RTVSPost2010PropOp56
 70
     1
102
RTVSPost2010Prop57
140
1.0
102
RTVSPost2010PropOp57
 70
     1
  0
XRECORD
  5
843
102
{ACAD_REACTORS
330
842
102
}
330
842
100
AcDbXrecord
280
     1
102
RTVSPropertyOp0
 70
     1
102
RTVSPropertyOp1
 70
     1
102
RTVSPropertyOp2
 70
     1
102
RTVSPropertyOp3
 70
     1
102
RTVSPropertyOp4
 70
     1
102
RTVSPropertyOp5
 70
     1
102
RTVSPropertyOp6
 70
     1
102
RTVSPropertyOp7
 70
     1
102
RTVSPropertyOp8
 70
     1
102
RTVSPropertyOp9
 70
     1
102
RTVSPropertyOp10
 70
     1
102
RTVSPropertyOp11
 70
     1
102
RTVSPropertyOp12
 70
     1
102
RTVSPropertyOp13
 70
     1
102
RTVSPropertyOp14
 70
     1
102
RTVSPropertyOp15
 70
     1
102
RTVSPropertyOp16
 70
     1
102
RTVSPropertyOp17
 70
     1
102
RTVSPropertyOp18
 70
     1
102
RTVSPropertyOp19
 70
     1
102
RTVSPropertyOp20
 70
     1
102
RTVSPropertyOp21
 70
     1
102
RTVSPropertyOp22
 70
     1
102
RTVSPropertyOp23
 70
     1
102
RTVSPropertyOp24
 70
     1
102
RTVSPropertyOp25
 70
     1
102
RTVSPropertyOp26
 70
     1
102
RTVSPropertyOp27
 70
     1
102
RTVSPropertyOp28
 70
     1
102
RTVSPropertyOp29
 70
     1
102
RTVSPropertyOp30
 70
     1
102
RTVSPropertyOp31
 70
     1
102
RTVSPropertyOp32
 70
     1
102
RTVSPropertyOp33
 70
     1
102
RTVSPropertyOp34
 70
     1
102
RTVSPropertyOp35
 70
     1
102
RTVSPropertyOp36
 70
     1
102
RTVSPropertyOp37
 70
     1
102
RTVSPropertyOp38
 70
     1
102
RTVSPropertyOp39
 70
     1
102
RTVSPropertyOp40
 70
     1
102
RTVSPropertyOp41
 70
     1
102
RTVSPropertyOp42
 70
     1
102
RTVSPropertyOp43
 70
     1
102
RTVSPropertyOp44
 70
     1
102
RTVSPropertyOp45
 70
     1
102
RTVSPropertyOp46
 70
     1
102
RTVSPropertyOp47
 70
     1
102
RTVSPropertyOp48
 70
     1
102
RTVSPropertyOp49
 70
     1
102
RTVSPropertyOp50
 70
     1
102
RTVSPropertyOp51
 70
     0
102
RTVSPropertyOp52
 70
     0
102
RTVSPropertyOp53
 70
     1
102
RTVSPropertyOp54
 70
     1
102
RTVSPropertyOp55
 70
     1
102
RTVSPropertyOp56
 70
     1
102
RTVSPropertyOp57
 70
     1
102
RTVSPost2010Prop28
280
     0
102
RTVSPost2010PropOp28
 70
     1
102
RTVSPost2010Prop29
280
     1
102
RTVSPost2010PropOp29
 70
     1
102
RTVSPost2010Prop30
280
     1
102
RTVSPost2010PropOp30
 70
     1
102
RTVSPost2010Prop31
280
     0
102
RTVSPost2010PropOp31
 70
     1
102
RTVSPost2010Prop32
280
     0
102
RTVSPost2010PropOp32
 70
     1
102
RTVSPost2010Prop33
280
     0
102
RTVSPost2010PropOp33
 70
     1
102
RTVSPost2010Prop34
280
     0
102
RTVSPost2010PropOp34
 70
     1
102
RTVSPost2010Prop35
280
     0
102
RTVSPost2010PropOp35
 70
     1
102
RTVSPost2010Prop36
280
     0
102
RTVSPost2010PropOp36
 70
     1
102
RTVSPost2010Prop37
 90
       50
102
RTVSPost2010PropOp37
 70
     1
102
RTVSPost2010Prop38
140
0.0
102
RTVSPost2010PropOp38
 70
     1
102
RTVSPost2010Prop39
140
1.0
102
RTVSPost2010PropOp39
 70
     1
102
RTVSPost2010Prop40
 90
        0
102
RTVSPost2010PropOp40
 70
     1
102
RTVSPost2010Prop41ColorIndex
 90
       18
102
RTVSPost2010Prop41ColorRGB
 90
        0
102
RTVSPost2010PropOp41
 70
     1
102
RTVSPost2010Prop42
 90
       50
102
RTVSPost2010PropOp42
 70
     1
102
RTVSPost2010Prop43
 90
        3
102
RTVSPost2010PropOp43
 70
     1
102
RTVSPost2010Prop44ColorIndex
 90
        5
102
RTVSPost2010Prop44ColorRGB
 90
      255
102
RTVSPost2010PropOp44
 70
     1
102
RTVSPost2010Prop45
280
     0
102
RTVSPost2010PropOp45
 70
     1
102
RTVSPost2010Prop46
 90
       50
102
RTVSPost2010PropOp46
 70
     1
102
RTVSPost2010Prop47
 90
       50
102
RTVSPost2010PropOp47
 70
     1
102
RTVSPost2010Prop48
 90
       50
102
RTVSPost2010PropOp48
 70
     1
102
RTVSPost2010Prop49
280
     0
102
RTVSPost2010PropOp49
 70
     1
102
RTVSPost2010Prop50
 90
       50
102
RTVSPost2010PropOp50
 70
     1
102
RTVSPost2010Prop51ColorIndex
 90
      256
102
RTVSPost2010Prop51ColorRGB
 90
-16777216
102
RTVSPost2010PropOp51
 70
     0
102
RTVSPost2010Prop52
140
1.0
102
RTVSPost2010PropOp52
 70
     0
102
RTVSPost2010Prop53
 90
        2
102
RTVSPost2010PropOp53
 70
     1
102
RTVSPost2010Prop54
  1
strokes_ogs.tif
102
RTVSPost2010PropOp54
 70
     1
102
RTVSPost2010Prop55
280
     0
102
RTVSPost2010PropOp55
 70
     1
102
RTVSPost2010Prop56
140
1.0
102
RTVSPost2010PropOp56
 70
     1
102
RTVSPost2010Prop57
140
1.0
102
RTVSPost2010PropOp57
 70
     1
  0
XRECORD
  5
841
102
{ACAD_REACTORS
330
840
102
}
330
840
100
AcDbXrecord
280
     1
102
RTVSPropertyOp0
 70
     1
102
RTVSPropertyOp1
 70
     1
102
RTVSPropertyOp2
 70
     1
102
RTVSPropertyOp3
 70
     1
102
RTVSPropertyOp4
 70
     1
102
RTVSPropertyOp5
 70
     1
102
RTVSPropertyOp6
 70
     1
102
RTVSPropertyOp7
 70
     1
102
RTVSPropertyOp8
 70
     1
102
RTVSPropertyOp9
 70
     1
102
RTVSPropertyOp10
 70
     1
102
RTVSPropertyOp11
 70
     1
102
RTVSPropertyOp12
 70
     1
102
RTVSPropertyOp13
 70
     1
102
RTVSPropertyOp14
 70
     1
102
RTVSPropertyOp15
 70
     1
102
RTVSPropertyOp16
 70
     1
102
RTVSPropertyOp17
 70
     1
102
RTVSPropertyOp18
 70
     1
102
RTVSPropertyOp19
 70
     1
102
RTVSPropertyOp20
 70
     1
102
RTVSPropertyOp21
 70
     1
102
RTVSPropertyOp22
 70
     1
102
RTVSPropertyOp23
 70
     1
102
RTVSPropertyOp24
 70
     1
102
RTVSPropertyOp25
 70
     1
102
RTVSPropertyOp26
 70
     1
102
RTVSPropertyOp27
 70
     1
102
RTVSPropertyOp28
 70
     1
102
RTVSPropertyOp29
 70
     1
102
RTVSPropertyOp30
 70
     1
102
RTVSPropertyOp31
 70
     1
102
RTVSPropertyOp32
 70
     1
102
RTVSPropertyOp33
 70
     1
102
RTVSPropertyOp34
 70
     1
102
RTVSPropertyOp35
 70
     1
102
RTVSPropertyOp36
 70
     1
102
RTVSPropertyOp37
 70
     1
102
RTVSPropertyOp38
 70
     1
102
RTVSPropertyOp39
 70
     1
102
RTVSPropertyOp40
 70
     1
102
RTVSPropertyOp41
 70
     1
102
RTVSPropertyOp42
 70
     1
102
RTVSPropertyOp43
 70
     1
102
RTVSPropertyOp44
 70
     1
102
RTVSPropertyOp45
 70
     1
102
RTVSPropertyOp46
 70
     1
102
RTVSPropertyOp47
 70
     1
102
RTVSPropertyOp48
 70
     1
102
RTVSPropertyOp49
 70
     1
102
RTVSPropertyOp50
 70
     1
102
RTVSPropertyOp51
 70
     0
102
RTVSPropertyOp52
 70
     0
102
RTVSPropertyOp53
 70
     1
102
RTVSPropertyOp54
 70
     1
102
RTVSPropertyOp55
 70
     1
102
RTVSPropertyOp56
 70
     1
102
RTVSPropertyOp57
 70
     1
102
RTVSPost2010Prop28
280
     0
102
RTVSPost2010PropOp28
 70
     1
102
RTVSPost2010Prop29
280
     1
102
RTVSPost2010PropOp29
 70
     1
102
RTVSPost2010Prop30
280
     1
102
RTVSPost2010PropOp30
 70
     1
102
RTVSPost2010Prop31
280
     0
102
RTVSPost2010PropOp31
 70
     1
102
RTVSPost2010Prop32
280
     0
102
RTVSPost2010PropOp32
 70
     1
102
RTVSPost2010Prop33
280
     0
102
RTVSPost2010PropOp33
 70
     1
102
RTVSPost2010Prop34
280
     0
102
RTVSPost2010PropOp34
 70
     1
102
RTVSPost2010Prop35
280
     0
102
RTVSPost2010PropOp35
 70
     1
102
RTVSPost2010Prop36
280
     0
102
RTVSPost2010PropOp36
 70
     1
102
RTVSPost2010Prop37
 90
       50
102
RTVSPost2010PropOp37
 70
     1
102
RTVSPost2010Prop38
140
0.0
102
RTVSPost2010PropOp38
 70
     1
102
RTVSPost2010Prop39
140
1.0
102
RTVSPost2010PropOp39
 70
     1
102
RTVSPost2010Prop40
 90
        0
102
RTVSPost2010PropOp40
 70
     1
102
RTVSPost2010Prop41ColorIndex
 90
       18
102
RTVSPost2010Prop41ColorRGB
 90
        0
102
RTVSPost2010PropOp41
 70
     1
102
RTVSPost2010Prop42
 90
       50
102
RTVSPost2010PropOp42
 70
     1
102
RTVSPost2010Prop43
 90
        3
102
RTVSPost2010PropOp43
 70
     1
102
RTVSPost2010Prop44ColorIndex
 90
        5
102
RTVSPost2010Prop44ColorRGB
 90
      255
102
RTVSPost2010PropOp44
 70
     1
102
RTVSPost2010Prop45
280
     0
102
RTVSPost2010PropOp45
 70
     1
102
RTVSPost2010Prop46
 90
       50
102
RTVSPost2010PropOp46
 70
     1
102
RTVSPost2010Prop47
 90
       50
102
RTVSPost2010PropOp47
 70
     1
102
RTVSPost2010Prop48
 90
       50
102
RTVSPost2010PropOp48
 70
     1
102
RTVSPost2010Prop49
280
     0
102
RTVSPost2010PropOp49
 70
     1
102
RTVSPost2010Prop50
 90
       50
102
RTVSPost2010PropOp50
 70
     1
102
RTVSPost2010Prop51ColorIndex
 90
      256
102
RTVSPost2010Prop51ColorRGB
 90
-16777216
102
RTVSPost2010PropOp51
 70
     0
102
RTVSPost2010Prop52
140
1.0
102
RTVSPost2010PropOp52
 70
     0
102
RTVSPost2010Prop53
 90
        2
102
RTVSPost2010PropOp53
 70
     1
102
RTVSPost2010Prop54
  1
strokes_ogs.tif
102
RTVSPost2010PropOp54
 70
     1
102
RTVSPost2010Prop55
280
     0
102
RTVSPost2010PropOp55
 70
     1
102
RTVSPost2010Prop56
140
1.0
102
RTVSPost2010PropOp56
 70
     1
102
RTVSPost2010Prop57
140
1.0
102
RTVSPost2010PropOp57
 70
     1
  0
XRECORD
  5
83B
102
{ACAD_REACTORS
330
83A
102
}
330
83A
100
AcDbXrecord
280
     1
102
RTVSPropertyOp0
 70
     1
102
RTVSPropertyOp1
 70
     1
102
RTVSPropertyOp2
 70
     1
102
RTVSPropertyOp3
 70
     1
102
RTVSPropertyOp4
 70
     1
102
RTVSPropertyOp5
 70
     1
102
RTVSPropertyOp6
 70
     1
102
RTVSPropertyOp7
 70
     1
102
RTVSPropertyOp8
 70
     1
102
RTVSPropertyOp9
 70
     1
102
RTVSPropertyOp10
 70
     1
102
RTVSPropertyOp11
 70
     1
102
RTVSPropertyOp12
 70
     1
102
RTVSPropertyOp13
 70
     1
102
RTVSPropertyOp14
 70
     1
102
RTVSPropertyOp15
 70
     1
102
RTVSPropertyOp16
 70
     1
102
RTVSPropertyOp17
 70
     1
102
RTVSPropertyOp18
 70
     1
102
RTVSPropertyOp19
 70
     1
102
RTVSPropertyOp20
 70
     1
102
RTVSPropertyOp21
 70
     1
102
RTVSPropertyOp22
 70
     1
102
RTVSPropertyOp23
 70
     1
102
RTVSPropertyOp24
 70
     1
102
RTVSPropertyOp25
 70
     1
102
RTVSPropertyOp26
 70
     1
102
RTVSPropertyOp27
 70
     1
102
RTVSPropertyOp28
 70
     1
102
RTVSPropertyOp29
 70
     1
102
RTVSPropertyOp30
 70
     1
102
RTVSPropertyOp31
 70
     1
102
RTVSPropertyOp32
 70
     1
102
RTVSPropertyOp33
 70
     1
102
RTVSPropertyOp34
 70
     1
102
RTVSPropertyOp35
 70
     1
102
RTVSPropertyOp36
 70
     1
102
RTVSPropertyOp37
 70
     1
102
RTVSPropertyOp38
 70
     1
102
RTVSPropertyOp39
 70
     1
102
RTVSPropertyOp40
 70
     1
102
RTVSPropertyOp41
 70
     1
102
RTVSPropertyOp42
 70
     1
102
RTVSPropertyOp43
 70
     1
102
RTVSPropertyOp44
 70
     1
102
RTVSPropertyOp45
 70
     1
102
RTVSPropertyOp46
 70
     1
102
RTVSPropertyOp47
 70
     1
102
RTVSPropertyOp48
 70
     1
102
RTVSPropertyOp49
 70
     1
102
RTVSPropertyOp50
 70
     1
102
RTVSPropertyOp51
 70
     0
102
RTVSPropertyOp52
 70
     0
102
RTVSPropertyOp53
 70
     1
102
RTVSPropertyOp54
 70
     1
102
RTVSPropertyOp55
 70
     1
102
RTVSPropertyOp56
 70
     1
102
RTVSPropertyOp57
 70
     1
102
RTVSPost2010Prop28
280
     0
102
RTVSPost2010PropOp28
 70
     1
102
RTVSPost2010Prop29
280
     1
102
RTVSPost2010PropOp29
 70
     1
102
RTVSPost2010Prop30
280
     1
102
RTVSPost2010PropOp30
 70
     1
102
RTVSPost2010Prop31
280
     0
102
RTVSPost2010PropOp31
 70
     1
102
RTVSPost2010Prop32
280
     0
102
RTVSPost2010PropOp32
 70
     1
102
RTVSPost2010Prop33
280
     0
102
RTVSPost2010PropOp33
 70
     1
102
RTVSPost2010Prop34
280
     0
102
RTVSPost2010PropOp34
 70
     1
102
RTVSPost2010Prop35
280
     0
102
RTVSPost2010PropOp35
 70
     1
102
RTVSPost2010Prop36
280
     0
102
RTVSPost2010PropOp36
 70
     1
102
RTVSPost2010Prop37
 90
       50
102
RTVSPost2010PropOp37
 70
     1
102
RTVSPost2010Prop38
140
0.0
102
RTVSPost2010PropOp38
 70
     1
102
RTVSPost2010Prop39
140
1.0
102
RTVSPost2010PropOp39
 70
     1
102
RTVSPost2010Prop40
 90
        0
102
RTVSPost2010PropOp40
 70
     1
102
RTVSPost2010Prop41ColorIndex
 90
       18
102
RTVSPost2010Prop41ColorRGB
 90
        0
102
RTVSPost2010PropOp41
 70
     1
102
RTVSPost2010Prop42
 90
       50
102
RTVSPost2010PropOp42
 70
     1
102
RTVSPost2010Prop43
 90
        3
102
RTVSPost2010PropOp43
 70
     1
102
RTVSPost2010Prop44ColorIndex
 90
        5
102
RTVSPost2010Prop44ColorRGB
 90
      255
102
RTVSPost2010PropOp44
 70
     1
102
RTVSPost2010Prop45
280
     0
102
RTVSPost2010PropOp45
 70
     1
102
RTVSPost2010Prop46
 90
       50
102
RTVSPost2010PropOp46
 70
     1
102
RTVSPost2010Prop47
 90
       50
102
RTVSPost2010PropOp47
 70
     1
102
RTVSPost2010Prop48
 90
       50
102
RTVSPost2010PropOp48
 70
     1
102
RTVSPost2010Prop49
280
     0
102
RTVSPost2010PropOp49
 70
     1
102
RTVSPost2010Prop50
 90
       50
102
RTVSPost2010PropOp50
 70
     1
102
RTVSPost2010Prop51ColorIndex
 90
      256
102
RTVSPost2010Prop51ColorRGB
 90
-16777216
102
RTVSPost2010PropOp51
 70
     0
102
RTVSPost2010Prop52
140
1.0
102
RTVSPost2010PropOp52
 70
     0
102
RTVSPost2010Prop53
 90
        2
102
RTVSPost2010PropOp53
 70
     1
102
RTVSPost2010Prop54
  1
strokes_ogs.tif
102
RTVSPost2010PropOp54
 70
     1
102
RTVSPost2010Prop55
280
     0
102
RTVSPost2010PropOp55
 70
     1
102
RTVSPost2010Prop56
140
1.0
102
RTVSPost2010PropOp56
 70
     1
102
RTVSPost2010Prop57
140
1.0
102
RTVSPost2010PropOp57
 70
     1
  0
XRECORD
  5
83D
102
{ACAD_REACTORS
330
83C
102
}
330
83C
100
AcDbXrecord
280
     1
102
RTVSPropertyOp0
 70
     1
102
RTVSPropertyOp1
 70
     1
102
RTVSPropertyOp2
 70
     1
102
RTVSPropertyOp3
 70
     1
102
RTVSPropertyOp4
 70
     1
102
RTVSPropertyOp5
 70
     1
102
RTVSPropertyOp6
 70
     1
102
RTVSPropertyOp7
 70
     1
102
RTVSPropertyOp8
 70
     1
102
RTVSPropertyOp9
 70
     1
102
RTVSPropertyOp10
 70
     1
102
RTVSPropertyOp11
 70
     1
102
RTVSPropertyOp12
 70
     1
102
RTVSPropertyOp13
 70
     1
102
RTVSPropertyOp14
 70
     1
102
RTVSPropertyOp15
 70
     1
102
RTVSPropertyOp16
 70
     1
102
RTVSPropertyOp17
 70
     1
102
RTVSPropertyOp18
 70
     1
102
RTVSPropertyOp19
 70
     1
102
RTVSPropertyOp20
 70
     1
102
RTVSPropertyOp21
 70
     1
102
RTVSPropertyOp22
 70
     1
102
RTVSPropertyOp23
 70
     1
102
RTVSPropertyOp24
 70
     1
102
RTVSPropertyOp25
 70
     1
102
RTVSPropertyOp26
 70
     1
102
RTVSPropertyOp27
 70
     1
102
RTVSPropertyOp28
 70
     1
102
RTVSPropertyOp29
 70
     1
102
RTVSPropertyOp30
 70
     1
102
RTVSPropertyOp31
 70
     1
102
RTVSPropertyOp32
 70
     1
102
RTVSPropertyOp33
 70
     1
102
RTVSPropertyOp34
 70
     1
102
RTVSPropertyOp35
 70
     1
102
RTVSPropertyOp36
 70
     1
102
RTVSPropertyOp37
 70
     1
102
RTVSPropertyOp38
 70
     1
102
RTVSPropertyOp39
 70
     1
102
RTVSPropertyOp40
 70
     1
102
RTVSPropertyOp41
 70
     1
102
RTVSPropertyOp42
 70
     1
102
RTVSPropertyOp43
 70
     1
102
RTVSPropertyOp44
 70
     1
102
RTVSPropertyOp45
 70
     1
102
RTVSPropertyOp46
 70
     1
102
RTVSPropertyOp47
 70
     1
102
RTVSPropertyOp48
 70
     1
102
RTVSPropertyOp49
 70
     1
102
RTVSPropertyOp50
 70
     1
102
RTVSPropertyOp51
 70
     0
102
RTVSPropertyOp52
 70
     0
102
RTVSPropertyOp53
 70
     1
102
RTVSPropertyOp54
 70
     1
102
RTVSPropertyOp55
 70
     1
102
RTVSPropertyOp56
 70
     1
102
RTVSPropertyOp57
 70
     1
102
RTVSPost2010Prop28
280
     0
102
RTVSPost2010PropOp28
 70
     1
102
RTVSPost2010Prop29
280
     1
102
RTVSPost2010PropOp29
 70
     1
102
RTVSPost2010Prop30
280
     1
102
RTVSPost2010PropOp30
 70
     1
102
RTVSPost2010Prop31
280
     0
102
RTVSPost2010PropOp31
 70
     1
102
RTVSPost2010Prop32
280
     0
102
RTVSPost2010PropOp32
 70
     1
102
RTVSPost2010Prop33
280
     0
102
RTVSPost2010PropOp33
 70
     1
102
RTVSPost2010Prop34
280
     0
102
RTVSPost2010PropOp34
 70
     1
102
RTVSPost2010Prop35
280
     0
102
RTVSPost2010PropOp35
 70
     1
102
RTVSPost2010Prop36
280
     0
102
RTVSPost2010PropOp36
 70
     1
102
RTVSPost2010Prop37
 90
       50
102
RTVSPost2010PropOp37
 70
     1
102
RTVSPost2010Prop38
140
0.0
102
RTVSPost2010PropOp38
 70
     1
102
RTVSPost2010Prop39
140
1.0
102
RTVSPost2010PropOp39
 70
     1
102
RTVSPost2010Prop40
 90
        0
102
RTVSPost2010PropOp40
 70
     1
102
RTVSPost2010Prop41ColorIndex
 90
       18
102
RTVSPost2010Prop41ColorRGB
 90
        0
102
RTVSPost2010PropOp41
 70
     1
102
RTVSPost2010Prop42
 90
       50
102
RTVSPost2010PropOp42
 70
     1
102
RTVSPost2010Prop43
 90
        3
102
RTVSPost2010PropOp43
 70
     1
102
RTVSPost2010Prop44ColorIndex
 90
        5
102
RTVSPost2010Prop44ColorRGB
 90
      255
102
RTVSPost2010PropOp44
 70
     1
102
RTVSPost2010Prop45
280
     0
102
RTVSPost2010PropOp45
 70
     1
102
RTVSPost2010Prop46
 90
       50
102
RTVSPost2010PropOp46
 70
     1
102
RTVSPost2010Prop47
 90
       50
102
RTVSPost2010PropOp47
 70
     1
102
RTVSPost2010Prop48
 90
       50
102
RTVSPost2010PropOp48
 70
     1
102
RTVSPost2010Prop49
280
     0
102
RTVSPost2010PropOp49
 70
     1
102
RTVSPost2010Prop50
 90
       50
102
RTVSPost2010PropOp50
 70
     1
102
RTVSPost2010Prop51ColorIndex
 90
      256
102
RTVSPost2010Prop51ColorRGB
 90
-16777216
102
RTVSPost2010PropOp51
 70
     0
102
RTVSPost2010Prop52
140
1.0
102
RTVSPost2010PropOp52
 70
     0
102
RTVSPost2010Prop53
 90
        2
102
RTVSPost2010PropOp53
 70
     1
102
RTVSPost2010Prop54
  1
strokes_ogs.tif
102
RTVSPost2010PropOp54
 70
     1
102
RTVSPost2010Prop55
280
     0
102
RTVSPost2010PropOp55
 70
     1
102
RTVSPost2010Prop56
140
1.0
102
RTVSPost2010PropOp56
 70
     1
102
RTVSPost2010Prop57
140
1.0
102
RTVSPost2010PropOp57
 70
     1
  0
XRECORD
  5
829
102
{ACAD_REACTORS
330
828
102
}
330
828
100
AcDbXrecord
280
     1
102
RTVSPropertyOp0
 70
     1
102
RTVSPropertyOp1
 70
     1
102
RTVSPropertyOp2
 70
     1
102
RTVSPropertyOp3
 70
     1
102
RTVSPropertyOp4
 70
     1
102
RTVSPropertyOp5
 70
     1
102
RTVSPropertyOp6
 70
     1
102
RTVSPropertyOp7
 70
     1
102
RTVSPropertyOp8
 70
     1
102
RTVSPropertyOp9
 70
     1
102
RTVSPropertyOp10
 70
     1
102
RTVSPropertyOp11
 70
     1
102
RTVSPropertyOp12
 70
     1
102
RTVSPropertyOp13
 70
     1
102
RTVSPropertyOp14
 70
     1
102
RTVSPropertyOp15
 70
     1
102
RTVSPropertyOp16
 70
     1
102
RTVSPropertyOp17
 70
     1
102
RTVSPropertyOp18
 70
     1
102
RTVSPropertyOp19
 70
     1
102
RTVSPropertyOp20
 70
     1
102
RTVSPropertyOp21
 70
     1
102
RTVSPropertyOp22
 70
     1
102
RTVSPropertyOp23
 70
     1
102
RTVSPropertyOp24
 70
     1
102
RTVSPropertyOp25
 70
     1
102
RTVSPropertyOp26
 70
     1
102
RTVSPropertyOp27
 70
     1
102
RTVSPropertyOp28
 70
     1
102
RTVSPropertyOp29
 70
     1
102
RTVSPropertyOp30
 70
     1
102
RTVSPropertyOp31
 70
     1
102
RTVSPropertyOp32
 70
     1
102
RTVSPropertyOp33
 70
     1
102
RTVSPropertyOp34
 70
     1
102
RTVSPropertyOp35
 70
     1
102
RTVSPropertyOp36
 70
     1
102
RTVSPropertyOp37
 70
     1
102
RTVSPropertyOp38
 70
     1
102
RTVSPropertyOp39
 70
     1
102
RTVSPropertyOp40
 70
     1
102
RTVSPropertyOp41
 70
     1
102
RTVSPropertyOp42
 70
     1
102
RTVSPropertyOp43
 70
     1
102
RTVSPropertyOp44
 70
     1
102
RTVSPropertyOp45
 70
     1
102
RTVSPropertyOp46
 70
     1
102
RTVSPropertyOp47
 70
     1
102
RTVSPropertyOp48
 70
     1
102
RTVSPropertyOp49
 70
     1
102
RTVSPropertyOp50
 70
     1
102
RTVSPropertyOp51
 70
     0
102
RTVSPropertyOp52
 70
     0
102
RTVSPropertyOp53
 70
     1
102
RTVSPropertyOp54
 70
     1
102
RTVSPropertyOp55
 70
     1
102
RTVSPropertyOp56
 70
     1
102
RTVSPropertyOp57
 70
     1
102
RTVSPost2010Prop28
280
     0
102
RTVSPost2010PropOp28
 70
     1
102
RTVSPost2010Prop29
280
     1
102
RTVSPost2010PropOp29
 70
     1
102
RTVSPost2010Prop30
280
     1
102
RTVSPost2010PropOp30
 70
     1
102
RTVSPost2010Prop31
280
     0
102
RTVSPost2010PropOp31
 70
     1
102
RTVSPost2010Prop32
280
     0
102
RTVSPost2010PropOp32
 70
     1
102
RTVSPost2010Prop33
280
     0
102
RTVSPost2010PropOp33
 70
     1
102
RTVSPost2010Prop34
280
     0
102
RTVSPost2010PropOp34
 70
     1
102
RTVSPost2010Prop35
280
     0
102
RTVSPost2010PropOp35
 70
     1
102
RTVSPost2010Prop36
280
     0
102
RTVSPost2010PropOp36
 70
     1
102
RTVSPost2010Prop37
 90
       50
102
RTVSPost2010PropOp37
 70
     1
102
RTVSPost2010Prop38
140
0.0
102
RTVSPost2010PropOp38
 70
     1
102
RTVSPost2010Prop39
140
1.0
102
RTVSPost2010PropOp39
 70
     1
102
RTVSPost2010Prop40
 90
        0
102
RTVSPost2010PropOp40
 70
     1
102
RTVSPost2010Prop41ColorIndex
 90
       18
102
RTVSPost2010Prop41ColorRGB
 90
        0
102
RTVSPost2010PropOp41
 70
     1
102
RTVSPost2010Prop42
 90
       50
102
RTVSPost2010PropOp42
 70
     1
102
RTVSPost2010Prop43
 90
        3
102
RTVSPost2010PropOp43
 70
     1
102
RTVSPost2010Prop44ColorIndex
 90
        5
102
RTVSPost2010Prop44ColorRGB
 90
      255
102
RTVSPost2010PropOp44
 70
     1
102
RTVSPost2010Prop45
280
     0
102
RTVSPost2010PropOp45
 70
     1
102
RTVSPost2010Prop46
 90
       50
102
RTVSPost2010PropOp46
 70
     1
102
RTVSPost2010Prop47
 90
       50
102
RTVSPost2010PropOp47
 70
     1
102
RTVSPost2010Prop48
 90
       50
102
RTVSPost2010PropOp48
 70
     1
102
RTVSPost2010Prop49
280
     0
102
RTVSPost2010PropOp49
 70
     1
102
RTVSPost2010Prop50
 90
       50
102
RTVSPost2010PropOp50
 70
     1
102
RTVSPost2010Prop51ColorIndex
 90
      256
102
RTVSPost2010Prop51ColorRGB
 90
-16777216
102
RTVSPost2010PropOp51
 70
     0
102
RTVSPost2010Prop52
140
1.0
102
RTVSPost2010PropOp52
 70
     0
102
RTVSPost2010Prop53
 90
        2
102
RTVSPost2010PropOp53
 70
     1
102
RTVSPost2010Prop54
  1
strokes_ogs.tif
102
RTVSPost2010PropOp54
 70
     1
102
RTVSPost2010Prop55
280
     0
102
RTVSPost2010PropOp55
 70
     1
102
RTVSPost2010Prop56
140
1.0
102
RTVSPost2010PropOp56
 70
     1
102
RTVSPost2010Prop57
140
1.0
102
RTVSPost2010PropOp57
 70
     1
  0
XRECORD
  5
831
102
{ACAD_REACTORS
330
830
102
}
330
830
100
AcDbXrecord
280
     1
102
RTVSPropertyOp0
 70
     1
102
RTVSPropertyOp1
 70
     1
102
RTVSPropertyOp2
 70
     1
102
RTVSPropertyOp3
 70
     1
102
RTVSPropertyOp4
 70
     1
102
RTVSPropertyOp5
 70
     1
102
RTVSPropertyOp6
 70
     1
102
RTVSPropertyOp7
 70
     1
102
RTVSPropertyOp8
 70
     1
102
RTVSPropertyOp9
 70
     1
102
RTVSPropertyOp10
 70
     1
102
RTVSPropertyOp11
 70
     1
102
RTVSPropertyOp12
 70
     1
102
RTVSPropertyOp13
 70
     1
102
RTVSPropertyOp14
 70
     1
102
RTVSPropertyOp15
 70
     1
102
RTVSPropertyOp16
 70
     1
102
RTVSPropertyOp17
 70
     1
102
RTVSPropertyOp18
 70
     1
102
RTVSPropertyOp19
 70
     1
102
RTVSPropertyOp20
 70
     1
102
RTVSPropertyOp21
 70
     1
102
RTVSPropertyOp22
 70
     1
102
RTVSPropertyOp23
 70
     1
102
RTVSPropertyOp24
 70
     1
102
RTVSPropertyOp25
 70
     1
102
RTVSPropertyOp26
 70
     1
102
RTVSPropertyOp27
 70
     1
102
RTVSPropertyOp28
 70
     1
102
RTVSPropertyOp29
 70
     1
102
RTVSPropertyOp30
 70
     1
102
RTVSPropertyOp31
 70
     1
102
RTVSPropertyOp32
 70
     1
102
RTVSPropertyOp33
 70
     1
102
RTVSPropertyOp34
 70
     1
102
RTVSPropertyOp35
 70
     1
102
RTVSPropertyOp36
 70
     1
102
RTVSPropertyOp37
 70
     1
102
RTVSPropertyOp38
 70
     1
102
RTVSPropertyOp39
 70
     1
102
RTVSPropertyOp40
 70
     1
102
RTVSPropertyOp41
 70
     1
102
RTVSPropertyOp42
 70
     1
102
RTVSPropertyOp43
 70
     1
102
RTVSPropertyOp44
 70
     1
102
RTVSPropertyOp45
 70
     1
102
RTVSPropertyOp46
 70
     1
102
RTVSPropertyOp47
 70
     1
102
RTVSPropertyOp48
 70
     1
102
RTVSPropertyOp49
 70
     1
102
RTVSPropertyOp50
 70
     1
102
RTVSPropertyOp51
 70
     0
102
RTVSPropertyOp52
 70
     0
102
RTVSPropertyOp53
 70
     1
102
RTVSPropertyOp54
 70
     1
102
RTVSPropertyOp55
 70
     1
102
RTVSPropertyOp56
 70
     1
102
RTVSPropertyOp57
 70
     1
102
RTVSPost2010Prop28
280
     0
102
RTVSPost2010PropOp28
 70
     1
102
RTVSPost2010Prop29
280
     1
102
RTVSPost2010PropOp29
 70
     1
102
RTVSPost2010Prop30
280
     1
102
RTVSPost2010PropOp30
 70
     1
102
RTVSPost2010Prop31
280
     0
102
RTVSPost2010PropOp31
 70
     1
102
RTVSPost2010Prop32
280
     0
102
RTVSPost2010PropOp32
 70
     1
102
RTVSPost2010Prop33
280
     0
102
RTVSPost2010PropOp33
 70
     1
102
RTVSPost2010Prop34
280
     0
102
RTVSPost2010PropOp34
 70
     1
102
RTVSPost2010Prop35
280
     0
102
RTVSPost2010PropOp35
 70
     1
102
RTVSPost2010Prop36
280
     0
102
RTVSPost2010PropOp36
 70
     1
102
RTVSPost2010Prop37
 90
       50
102
RTVSPost2010PropOp37
 70
     1
102
RTVSPost2010Prop38
140
0.0
102
RTVSPost2010PropOp38
 70
     1
102
RTVSPost2010Prop39
140
1.0
102
RTVSPost2010PropOp39
 70
     1
102
RTVSPost2010Prop40
 90
        0
102
RTVSPost2010PropOp40
 70
     1
102
RTVSPost2010Prop41ColorIndex
 90
       18
102
RTVSPost2010Prop41ColorRGB
 90
        0
102
RTVSPost2010PropOp41
 70
     1
102
RTVSPost2010Prop42
 90
       50
102
RTVSPost2010PropOp42
 70
     1
102
RTVSPost2010Prop43
 90
        3
102
RTVSPost2010PropOp43
 70
     1
102
RTVSPost2010Prop44ColorIndex
 90
        5
102
RTVSPost2010Prop44ColorRGB
 90
      255
102
RTVSPost2010PropOp44
 70
     1
102
RTVSPost2010Prop45
280
     0
102
RTVSPost2010PropOp45
 70
     1
102
RTVSPost2010Prop46
 90
       50
102
RTVSPost2010PropOp46
 70
     1
102
RTVSPost2010Prop47
 90
       50
102
RTVSPost2010PropOp47
 70
     1
102
RTVSPost2010Prop48
 90
       50
102
RTVSPost2010PropOp48
 70
     1
102
RTVSPost2010Prop49
280
     0
102
RTVSPost2010PropOp49
 70
     1
102
RTVSPost2010Prop50
 90
       50
102
RTVSPost2010PropOp50
 70
     1
102
RTVSPost2010Prop51ColorIndex
 90
      256
102
RTVSPost2010Prop51ColorRGB
 90
-16777216
102
RTVSPost2010PropOp51
 70
     0
102
RTVSPost2010Prop52
140
1.0
102
RTVSPost2010PropOp52
 70
     0
102
RTVSPost2010Prop53
 90
        2
102
RTVSPost2010PropOp53
 70
     1
102
RTVSPost2010Prop54
  1
strokes_ogs.tif
102
RTVSPost2010PropOp54
 70
     1
102
RTVSPost2010Prop55
280
     0
102
RTVSPost2010PropOp55
 70
     1
102
RTVSPost2010Prop56
140
1.0
102
RTVSPost2010PropOp56
 70
     1
102
RTVSPost2010Prop57
140
1.0
102
RTVSPost2010PropOp57
 70
     1
  0
XRECORD
  5
83F
102
{ACAD_REACTORS
330
83E
102
}
330
83E
100
AcDbXrecord
280
     1
102
RTVSPropertyOp0
 70
     1
102
RTVSPropertyOp1
 70
     1
102
RTVSPropertyOp2
 70
     1
102
RTVSPropertyOp3
 70
     1
102
RTVSPropertyOp4
 70
     1
102
RTVSPropertyOp5
 70
     1
102
RTVSPropertyOp6
 70
     1
102
RTVSPropertyOp7
 70
     1
102
RTVSPropertyOp8
 70
     1
102
RTVSPropertyOp9
 70
     1
102
RTVSPropertyOp10
 70
     1
102
RTVSPropertyOp11
 70
     1
102
RTVSPropertyOp12
 70
     1
102
RTVSPropertyOp13
 70
     1
102
RTVSPropertyOp14
 70
     1
102
RTVSPropertyOp15
 70
     1
102
RTVSPropertyOp16
 70
     1
102
RTVSPropertyOp17
 70
     1
102
RTVSPropertyOp18
 70
     1
102
RTVSPropertyOp19
 70
     1
102
RTVSPropertyOp20
 70
     1
102
RTVSPropertyOp21
 70
     1
102
RTVSPropertyOp22
 70
     1
102
RTVSPropertyOp23
 70
     1
102
RTVSPropertyOp24
 70
     1
102
RTVSPropertyOp25
 70
     1
102
RTVSPropertyOp26
 70
     1
102
RTVSPropertyOp27
 70
     1
102
RTVSPropertyOp28
 70
     1
102
RTVSPropertyOp29
 70
     1
102
RTVSPropertyOp30
 70
     1
102
RTVSPropertyOp31
 70
     1
102
RTVSPropertyOp32
 70
     1
102
RTVSPropertyOp33
 70
     1
102
RTVSPropertyOp34
 70
     1
102
RTVSPropertyOp35
 70
     1
102
RTVSPropertyOp36
 70
     1
102
RTVSPropertyOp37
 70
     1
102
RTVSPropertyOp38
 70
     1
102
RTVSPropertyOp39
 70
     1
102
RTVSPropertyOp40
 70
     1
102
RTVSPropertyOp41
 70
     1
102
RTVSPropertyOp42
 70
     1
102
RTVSPropertyOp43
 70
     1
102
RTVSPropertyOp44
 70
     1
102
RTVSPropertyOp45
 70
     1
102
RTVSPropertyOp46
 70
     1
102
RTVSPropertyOp47
 70
     1
102
RTVSPropertyOp48
 70
     1
102
RTVSPropertyOp49
 70
     1
102
RTVSPropertyOp50
 70
     1
102
RTVSPropertyOp51
 70
     0
102
RTVSPropertyOp52
 70
     0
102
RTVSPropertyOp53
 70
     1
102
RTVSPropertyOp54
 70
     1
102
RTVSPropertyOp55
 70
     1
102
RTVSPropertyOp56
 70
     1
102
RTVSPropertyOp57
 70
     1
102
RTVSPost2010Prop28
280
     0
102
RTVSPost2010PropOp28
 70
     1
102
RTVSPost2010Prop29
280
     1
102
RTVSPost2010PropOp29
 70
     1
102
RTVSPost2010Prop30
280
     1
102
RTVSPost2010PropOp30
 70
     1
102
RTVSPost2010Prop31
280
     0
102
RTVSPost2010PropOp31
 70
     1
102
RTVSPost2010Prop32
280
     0
102
RTVSPost2010PropOp32
 70
     1
102
RTVSPost2010Prop33
280
     0
102
RTVSPost2010PropOp33
 70
     1
102
RTVSPost2010Prop34
280
     0
102
RTVSPost2010PropOp34
 70
     1
102
RTVSPost2010Prop35
280
     0
102
RTVSPost2010PropOp35
 70
     1
102
RTVSPost2010Prop36
280
     0
102
RTVSPost2010PropOp36
 70
     1
102
RTVSPost2010Prop37
 90
       50
102
RTVSPost2010PropOp37
 70
     1
102
RTVSPost2010Prop38
140
0.0
102
RTVSPost2010PropOp38
 70
     1
102
RTVSPost2010Prop39
140
1.0
102
RTVSPost2010PropOp39
 70
     1
102
RTVSPost2010Prop40
 90
        0
102
RTVSPost2010PropOp40
 70
     1
102
RTVSPost2010Prop41ColorIndex
 90
       18
102
RTVSPost2010Prop41ColorRGB
 90
        0
102
RTVSPost2010PropOp41
 70
     1
102
RTVSPost2010Prop42
 90
       50
102
RTVSPost2010PropOp42
 70
     1
102
RTVSPost2010Prop43
 90
        3
102
RTVSPost2010PropOp43
 70
     1
102
RTVSPost2010Prop44ColorIndex
 90
        5
102
RTVSPost2010Prop44ColorRGB
 90
      255
102
RTVSPost2010PropOp44
 70
     1
102
RTVSPost2010Prop45
280
     0
102
RTVSPost2010PropOp45
 70
     1
102
RTVSPost2010Prop46
 90
       50
102
RTVSPost2010PropOp46
 70
     1
102
RTVSPost2010Prop47
 90
       50
102
RTVSPost2010PropOp47
 70
     1
102
RTVSPost2010Prop48
 90
       50
102
RTVSPost2010PropOp48
 70
     1
102
RTVSPost2010Prop49
280
     0
102
RTVSPost2010PropOp49
 70
     1
102
RTVSPost2010Prop50
 90
       50
102
RTVSPost2010PropOp50
 70
     1
102
RTVSPost2010Prop51ColorIndex
 90
      256
102
RTVSPost2010Prop51ColorRGB
 90
-16777216
102
RTVSPost2010PropOp51
 70
     0
102
RTVSPost2010Prop52
140
1.0
102
RTVSPost2010PropOp52
 70
     0
102
RTVSPost2010Prop53
 90
        2
102
RTVSPost2010PropOp53
 70
     1
102
RTVSPost2010Prop54
  1
strokes_ogs.tif
102
RTVSPost2010PropOp54
 70
     1
102
RTVSPost2010Prop55
280
     0
102
RTVSPost2010PropOp55
 70
     1
102
RTVSPost2010Prop56
140
1.0
102
RTVSPost2010PropOp56
 70
     1
102
RTVSPost2010Prop57
140
1.0
102
RTVSPost2010PropOp57
 70
     1
  0
ENDSEC
  0
EOF
